  0
SECTION
  2
HEADER
  9
$ACADVER
  1
AC1009
  9
$INSBASE
 10
0.0
 20
0.0
 30
0.0
  9
$EXTMIN
 10
4368.362
 20
4817.27
 30
0.0
  9
$EXTMAX
 10
41420.2
 20
22955.7
 30
0.0
  9
$LIMMIN
 10
-285.192473
 20
-427.362894
  9
$LIMMAX
 10
41420.183594
 20
22155.656641
  9
$ORTHOMODE
 70
     0
  9
$REGENMODE
 70
     1
  9
$FILLMODE
 70
     1
  9
$QTEXTMODE
 70
     0
  9
$MIRRTEXT
 70
     1
  9
$DRAGMODE
 70
     2
  9
$LTSCALE
 40
1.0
  9
$OSMODE
 70
     1
  9
$ATTMODE
 70
     1
  9
$TEXTSIZE
 40
3.15
  9
$TRACEWID
 40
0.05
  9
$TEXTSTYLE
  7
STANDARD
  9
$CLAYER
  8
ô_
  9
$CELTYPE
  6
BYLAYER
  9
$CECOLOR
 62
     2
  9
$DIMSCALE
 40
1.0
  9
$DIMASZ
 40
4.2
  9
$DIMEXO
 40
1.5625
  9
$DIMDLI
 40
9.5
  9
$DIMRND
 40
0.0
  9
$DIMDLE
 40
0.0
  9
$DIMEXE
 40
4.5
  9
$DIMTP
 40
0.0
  9
$DIMTM
 40
0.0
  9
$DIMTXT
 40
3.15
  9
$DIMCEN
 40
2.25
  9
$DIMTSZ
 40
0.0
  9
$DIMTOL
 70
     0
  9
$DIMLIM
 70
     0
  9
$DIMTIH
 70
     1
  9
$DIMTOH
 70
     1
  9
$DIMSE1
 70
     0
  9
$DIMSE2
 70
     0
  9
$DIMTAD
 70
     0
  9
$DIMZIN
 70
     0
  9
$DIMBLK
  1

  9
$DIMASO
 70
     1
  9
$DIMSHO
 70
     0
  9
$DIMPOST
  1

  9
$DIMAPOST
  1

  9
$DIMALT
 70
     0
  9
$DIMALTD
 70
     2
  9
$DIMALTF
 40
25.4
  9
$DIMLFAC
 40
1.0
  9
$DIMTOFL
 70
     0
  9
$DIMTVP
 40
0.0
  9
$DIMTIX
 70
     0
  9
$DIMSOXD
 70
     0
  9
$DIMSAH
 70
     0
  9
$DIMBLK1
  1

  9
$DIMBLK2
  1

  9
$DIMSTYLE
  2
STANDARD
  9
$DIMCLRD
 70
     0
  9
$DIMCLRE
 70
     0
  9
$DIMCLRT
 70
     0
  9
$DIMTFAC
 40
1.0
  9
$DIMGAP
 40
0.09
  9
$LUNITS
 70
     2
  9
$LUPREC
 70
     4
  9
$SKETCHINC
 40
0.1
  9
$FILLETRAD
 40
0.0
  9
$AUNITS
 70
     0
  9
$AUPREC
 70
     0
  9
$MENU
  1
acad
  9
$ELEVATION
 40
0.0
  9
$PELEVATION
 40
0.0
  9
$THICKNESS
 40
0.0
  9
$LIMCHECK
 70
     0
  9
$BLIPMODE
 70
     1
  9
$CHAMFERA
 40
0.0
  9
$CHAMFERB
 40
0.0
  9
$SKPOLY
 70
     0
  9
$TDCREATE
 40
2451556.384722
  9
$TDUPDATE
 40
2451814.751145
  9
$TDINDWG
 40
0.048021
  9
$TDUSRTIMER
 40
0.048021
  9
$USRTIMER
 70
     1
  9
$ANGBASE
 50
0.0
  9
$ANGDIR
 70
     0
  9
$PDMODE
 70
    35
  9
$PDSIZE
 40
0.0
  9
$PLINEWID
 40
0.0
  9
$COORDS
 70
     0
  9
$SPLFRAME
 70
     0
  9
$SPLINETYPE
 70
     6
  9
$SPLINESEGS
 70
     8
  9
$ATTDIA
 70
     0
  9
$ATTREQ
 70
     1
  9
$HANDLING
 70
     1
  9
$HANDSEED
  5
AA7
  9
$SURFTAB1
 70
     6
  9
$SURFTAB2
 70
     6
  9
$SURFTYPE
 70
     6
  9
$SURFU
 70
     6
  9
$SURFV
 70
     6
  9
$UCSNAME
  2

  9
$UCSORG
 10
0.0
 20
0.0
 30
0.0
  9
$UCSXDIR
 10
1.0
 20
0.0
 30
0.0
  9
$UCSYDIR
 10
0.0
 20
1.0
 30
0.0
  9
$PUCSNAME
  2

  9
$PUCSORG
 10
0.0
 20
0.0
 30
0.0
  9
$PUCSXDIR
 10
1.0
 20
0.0
 30
0.0
  9
$PUCSYDIR
 10
0.0
 20
1.0
 30
0.0
  9
$USERI1
 70
     0
  9
$USERI2
 70
     0
  9
$USERI3
 70
     0
  9
$USERI4
 70
     0
  9
$USERI5
 70
     0
  9
$USERR1
 40
0.0
  9
$USERR2
 40
0.0
  9
$USERR3
 40
0.0
  9
$USERR4
 40
0.0
  9
$USERR5
 40
0.0
  9
$WORLDVIEW
 70
     1
  9
$SHADEDGE
 70
     3
  9
$SHADEDIF
 70
    70
  9
$TILEMODE
 70
     1
  9
$MAXACTVP
 70
    48
  9
$PLIMCHECK
 70
     0
  9
$PEXTMIN
 10
1.000000E+020
 20
1.000000E+020
 30
1.000000E+020
  9
$PEXTMAX
 10
-1.000000E+020
 20
-1.000000E+020
 30
-1.000000E+020
  9
$PLIMMIN
 10
0.0
 20
0.0
  9
$PLIMMAX
 10
12.0
 20
9.0
  9
$UNITMODE
 70
     0
  9
$VISRETAIN
 70
     1
  9
$PLINEGEN
 70
     0
  9
$PSLTSCALE
 70
     1
  0
ENDSEC
  0
SECTION
  2
TABLES
  0
TABLE
  2
VPORT
 70
     2
  0
VPORT
  2
*ACTIVE
 70
     0
 10
0.0
 20
0.0
 11
1.0
 21
1.0
 12
22893.450053
 22
13886.628209
 13
0.0
 23
0.0
 14
1.0
 24
1.0
 15
0.0
 25
0.0
 16
0.0
 26
0.0
 36
1.0
 17
0.0
 27
0.0
 37
0.0
 40
21127.652405
 41
1.765267
 42
50.0
 43
0.0
 44
0.0
 50
0.0
 51
0.0
 71
     0
 72
   100
 73
     1
 74
     1
 75
     0
 76
     0
 77
     0
 78
     0
  0
ENDTAB
  0
TABLE
  2
LTYPE
 70
     1
  0
LTYPE
  2
CONTINUOUS
 70
     0
  3
Solid line
 72
    65
 73
     0
 40
0.0
  0
ENDTAB
  0
TABLE
  2
LAYER
 70
     2
  0
LAYER
  2
0
 70
     0
 62
     7
  6
CONTINUOUS
  0
LAYER
  2
ô_
 70
     0
 62
     1
  6
CONTINUOUS
  0
ENDTAB
  0
TABLE
  2
STYLE
 70
     1
  0
STYLE
  2
STANDARD
 70
     0
 40
0.0
 41
0.7
 50
0.0
 71
     0
 42
2.8
  3
txt
  4
bigfont
  0
ENDTAB
  0
TABLE
  2
VIEW
 70
     0
  0
ENDTAB
  0
TABLE
  2
UCS
 70
     0
  0
ENDTAB
  0
TABLE
  2
APPID
 70
     5
  0
APPID
  2
ACAD
 70
     0
  0
APPID
  2
CONTENTBLOCKICON
 70
     0
  0
APPID
  2
CONTENTBLOCKDESCRIPTION
 70
     0
  0
APPID
  2
CONTENTTABDATA
 70
     0
  0
APPID
  2
CONTENTCURRENTTAB
 70
     0
  0
ENDTAB
  0
TABLE
  2
DIMSTYLE
 70
     1
  0
DIMSTYLE
  2
STANDARD
 70
     0
  3

  4

  5

  6

  7

 40
1.0
 41
0.18
 42
0.0625
 43
0.38
 44
0.18
 45
0.0
 46
0.0
 47
0.0
 48
0.0
140
0.18
141
0.09
142
0.0
143
25.4
144
1.0
145
0.0
146
1.0
147
0.09
 71
     0
 72
     0
 73
     1
 74
     1
 75
     0
 76
     0
 77
     0
 78
     0
170
     0
171
     2
172
     0
173
     0
174
     0
175
     0
176
     0
177
     0
178
     0
  0
ENDTAB
  0
ENDSEC
  0
SECTION
  2
BLOCKS
  0
BLOCK
  8
0
  2
$MODEL_SPACE
 70
     0
 10
0.0
 20
0.0
 30
0.0
  3
$MODEL_SPACE
  1

  0
ENDBLK
  5
1A
  8
0
  0
BLOCK
 67
     1
  8
0
  2
$PAPER_SPACE
 70
     0
 10
0.0
 20
0.0
 30
0.0
  3
$PAPER_SPACE
  1

  0
ENDBLK
  5
17
 67
     1
  8
0
  0
BLOCK
  8
0
  2
B100141
 70
     0
 10
0.0
 20
0.0
 30
0.0
  3
B100141
  1

  0
LINE
  5
6D3
  8
0
  6
CONTINUOUS
 62
     3
 10
-9034.45
 20
116.0
 30
0.0
 11
51.0
 21
116.0
 31
0.0
  0
LINE
  5
6D4
  8
0
  6
CONTINUOUS
 62
     3
 10
-9304.07
 20
-519.0
 30
0.0
 11
-254.0
 21
-519.0
 31
0.0
  0
ARC
  5
6D5
  8
0
  6
CONTINUOUS
 62
     3
 10
-9813.06
 20
74.6
 30
0.0
 40
15.0
 50
194.26
 51
300.016
  0
CIRCLE
  5
6D6
  8
0
  6
CONTINUOUS
 62
     3
 10
-10015.1
 20
110.0
 30
0.0
 40
72.5002
  0
ARC
  5
6D7
  8
0
  6
CONTINUOUS
 62
     3
 10
-9670.12
 20
110.9
 30
0.0
 40
202.5
 50
97.0889
 51
276.699
  0
ARC
  5
6D8
  8
0
  6
CONTINUOUS
 62
     3
 10
-10015.1
 20
110.0
 30
0.0
 40
275.0
 50
95.2154
 51
246.422
  0
LINE
  5
6D9
  8
0
  6
CONTINUOUS
 62
     3
 10
-7660.03
 20
50.0
 30
0.0
 11
-7600.03
 21
110.0
 31
0.0
  0
LINE
  5
6DA
  8
0
  6
CONTINUOUS
 62
     3
 10
-8440.02
 20
50.0
 30
0.0
 11
-8500.02
 21
110.0
 31
0.0
  0
LINE
  5
6DB
  8
0
  6
CONTINUOUS
 62
     3
 10
-9739.15
 20
70.6
 30
0.0
 11
-9644.0
 21
-94.2
 31
0.0
  0
LINE
  5
6DC
  8
0
  6
CONTINUOUS
 62
     3
 10
-9645.12
 20
326.9
 30
0.0
 11
-9645.12
 21
45.9
 31
0.0
  0
LINE
  5
6DD
  8
0
  6
CONTINUOUS
 62
     3
 10
-9695.11
 20
326.9
 30
0.0
 11
-9695.11
 21
45.9
 31
0.0
  0
LINE
  5
6DE
  8
0
  6
CONTINUOUS
 62
     3
 10
-10125.1
 20
110.5
 30
0.0
 11
-10125.1
 21
-134.9
 31
0.0
  0
LINE
  5
6DF
  8
0
  6
CONTINUOUS
 62
     3
 10
-9323.61
 20
-565.0
 30
0.0
 11
-9034.14
 21
116.8
 31
0.0
  0
LINE
  5
6E0
  8
0
  6
CONTINUOUS
 62
     3
 10
-9550.13
 20
-509.976447
 30
0.0
 11
-9277.14
 21
133.0
 31
0.0
  0
LINE
  5
6E1
  8
0
  6
CONTINUOUS
 62
     3
 10
-9570.09
 20
-534.1
 30
0.0
 11
-9310.1
 21
78.9
 31
0.0
  0
CIRCLE
  5
6E2
  8
0
  6
CONTINUOUS
 62
     3
 10
-10190.03
 20
-820.0
 30
0.0
 40
64.9999
  0
CIRCLE
  5
6E3
  8
0
  6
CONTINUOUS
 62
     3
 10
-10190.03
 20
-820.0
 30
0.0
 40
76.1997
  0
ARC
  5
6E4
  8
0
  6
CONTINUOUS
 62
     3
 10
-10190.03
 20
-820.0
 30
0.0
 40
145.0
 50
180.1
 51
300.054
  0
ARC
  5
6E5
  8
0
  6
CONTINUOUS
 62
     3
 10
-10190.03
 20
-820.0
 30
0.0
 40
295.008
 50
89.435847
 51
30.556183
  0
LINE
  5
6E6
  8
0
  6
CONTINUOUS
 62
     3
 10
-10083.87
 20
-926.2
 30
0.0
 11
-9813.02
 21
-457.0
 31
0.0
  0
LINE
  5
6E7
  8
0
  6
CONTINUOUS
 62
     3
 10
-10117.62
 20
-945.7
 30
0.0
 11
-10083.89
 21
-926.2
 31
0.0
  0
ARC
  5
6E8
  8
0
  6
CONTINUOUS
 62
     3
 10
-9670.12
 20
110.9
 30
0.0
 40
162.5
 50
225.728
 51
254.264
  0
ARC
  5
6E9
  8
0
  6
CONTINUOUS
 62
     3
 10
-9742.82
 20
-687.7
 30
0.0
 40
49.9997
 50
226.826
 51
40.8399
  0
LINE
  5
6EA
  8
0
  6
CONTINUOUS
 62
     3
 10
-9726.85
 20
49.3
 30
0.0
 11
-9780.53
 21
18.3
 31
0.0
  0
LINE
  5
6EB
  8
0
  6
CONTINUOUS
 62
     3
 10
-9762.4
 20
-110.9
 30
0.0
 11
-9913.56
 21
-76.9
 31
0.0
  0
LINE
  5
6EC
  8
0
  6
CONTINUOUS
 62
     3
 10
-9797.1
 20
-458.1
 30
0.0
 11
-9750.13
 21
-458.1
 31
0.0
  0
LINE
  5
6ED
  8
0
  6
CONTINUOUS
 62
     3
 10
-9797.1
 20
-496.1
 30
0.0
 11
-9750.11
 21
-496.1
 31
0.0
  0
LINE
  5
6EE
  8
0
  6
CONTINUOUS
 62
     3
 10
-9704.98
 20
-655.0
 30
0.0
 11
-9838.29
 21
-500.8
 31
0.0
  0
LINE
  5
6EF
  8
0
  6
CONTINUOUS
 62
     3
 10
-9796.62
 20
-263.0
 30
0.0
 11
-9753.98
 21
-73.4
 31
0.0
  0
LINE
  5
6F0
  8
0
  6
CONTINUOUS
 62
     3
 10
-9813.02
 20
-245.0
 30
0.0
 11
-9813.02
 21
-457.1
 31
0.0
  0
LINE
  5
6F1
  8
0
  6
CONTINUOUS
 62
     3
 10
-9797.1
 20
-267.2
 30
0.0
 11
-9797.1
 21
-496.1
 31
0.0
  0
LINE
  5
6F2
  8
0
  6
CONTINUOUS
 62
     3
 10
-10335.01
 20
-781.2
 30
0.0
 11
-10064.17
 21
-312.0
 31
0.0
  0
LINE
  5
6F3
  8
0
  6
CONTINUOUS
 62
     3
 10
-10334.96
 20
-820.3
 30
0.0
 11
-10334.96
 21
-781.1
 31
0.0
  0
LINE
  5
6F4
  8
0
  6
CONTINUOUS
 62
     3
 10
-9777.05
 20
-724.2
 30
0.0
 11
-9900.32
 21
-608.3
 31
0.0
  0
ARC
  5
6F5
  8
0
  6
CONTINUOUS
 62
     3
 10
-9773.08
 20
5.3
 30
0.0
 40
15.0001
 50
120.009
 51
225.708
  0
ARC
  5
6F6
  8
0
  6
CONTINUOUS
 62
     3
 10
-9873.04
 20
-170.0
 30
0.0
 40
59.9998
 50
166.933
 51
257.324
  0
ARC
  5
6F7
  8
0
  6
CONTINUOUS
 62
     3
 10
-10075.1
 20
-134.9
 30
0.0
 40
50.0
 50
180.002
 51
257.324
  0
LINE
  5
6F8
  8
0
  6
CONTINUOUS
 62
     3
 10
-9931.46
 20
-156.5
 30
0.0
 11
-9913.56
 21
-76.9
 31
0.0
  0
LINE
  5
6F9
  8
0
  6
CONTINUOUS
 62
     3
 10
-9980.16
 20
-207.5
 30
0.0
 11
-10086.07
 21
-183.6
 31
0.0
  0
LINE
  5
6FA
  8
0
  6
CONTINUOUS
 62
     3
 10
-9928.5
 20
-143.3
 30
0.0
 11
-10064.17
 21
-312.1
 31
0.0
  0
LINE
  5
6FB
  8
0
  6
CONTINUOUS
 62
     3
 10
-9793.56
 20
-249.4
 30
0.0
 11
-9886.58
 21
-228.5
 31
0.0
  0
LINE
  5
6FC
  8
0
  6
CONTINUOUS
 62
     3
 10
-9750.1
 20
-446.3
 30
0.0
 11
-9638.55
 21
-183.3
 31
0.0
  0
LINE
  5
6FD
  8
0
  6
CONTINUOUS
 62
     3
 10
-9525.13
 20
-565.1
 30
0.0
 11
-9323.61
 21
-565.1
 31
0.0
  0
LINE
  5
6FE
  8
0
  6
CONTINUOUS
 62
     3
 10
-9550.13
 20
-540.1
 30
0.0
 11
-9525.13
 21
-565.1
 31
0.0
  0
LINE
  5
6FF
  8
0
  6
CONTINUOUS
 62
     3
 10
-9550.13
 20
-509.976447
 30
0.0
 11
-9550.13
 21
-527.1
 31
0.0
  0
LINE
  5
700
  8
0
  6
CONTINUOUS
 62
     3
 10
-9550.13
 20
-510.1
 30
0.0
 11
-9550.13
 21
-540.1
 31
0.0
  0
LINE
  5
701
  8
0
  6
CONTINUOUS
 62
     3
 10
-9551.01
 20
-489.1
 30
0.0
 11
-9541.22
 21
-489.1
 31
0.0
  0
LINE
  5
702
  8
0
  6
CONTINUOUS
 62
     3
 10
-9750.12
 20
-509.1
 30
0.0
 11
-9725.13
 21
-534.1
 31
0.0
  0
LINE
  5
703
  8
0
  6
CONTINUOUS
 62
     3
 10
-9750.13
 20
-446.3
 30
0.0
 11
-9750.13
 21
-509.1
 31
0.0
  0
LINE
  5
704
  8
0
  6
CONTINUOUS
 62
     3
 10
-9750.11
 20
-473.1
 30
0.0
 11
-9750.11
 21
-496.1
 31
0.0
  0
LINE
  5
705
  8
0
  6
CONTINUOUS
 62
     3
 10
-9750.11
 20
-496.1
 30
0.0
 11
-9750.11
 21
-458.1
 31
0.0
  0
LINE
  5
706
  8
0
  6
CONTINUOUS
 62
     3
 10
-9725.11
 20
-534.1
 30
0.0
 11
-9570.11
 21
-534.1
 31
0.0
  0
ARC
  5
707
  8
0
  6
CONTINUOUS
 62
     3
 10
-9710.12
 20
-31.0
 30
0.0
 40
15.0
 50
254.259
 51
0.016788
  0
ARC
  5
708
  8
0
  6
CONTINUOUS
 62
     3
 10
-9730.63
 20
-144.3
 30
0.0
 40
99.9997
 50
337.017
 51
29.9994
  0
LINE
  5
709
  8
0
  6
CONTINUOUS
 62
     3
 10
-9695.09
 20
45.9
 30
0.0
 11
-9645.1
 21
45.9
 31
0.0
  0
LINE
  5
70A
  8
0
  6
CONTINUOUS
 62
     3
 10
-9695.11
 20
-31.1
 30
0.0
 11
-9695.11
 21
-5.8
 31
0.0
  0
LINE
  5
70B
  8
0
  6
CONTINUOUS
 62
     3
 10
-8440.01
 20
50.0
 30
0.0
 11
-7660.01
 21
50.0
 31
0.0
  0
ARC
  5
70C
  8
0
  6
CONTINUOUS
 62
     3
 10
-9670.12
 20
110.9
 30
0.0
 40
162.5
 50
105.728
 51
134.264
  0
ARC
  5
70D
  8
0
  6
CONTINUOUS
 62
     3
 10
-9670.12
 20
110.9
 30
0.0
 40
80.0
 50
108.199
 51
210.313
  0
LINE
  5
70E
  8
0
  6
CONTINUOUS
 62
     3
 10
-9780.58
 20
203.6
 30
0.0
 11
-9723.43
 21
170.6
 31
0.0
  0
LINE
  5
70F
  8
0
  6
CONTINUOUS
 62
     3
 10
-9748.43
 20
127.3
 30
0.0
 11
-9805.58
 21
160.3
 31
0.0
  0
LINE
  5
710
  8
0
  6
CONTINUOUS
 62
     3
 10
-9805.51
 20
61.6
 30
0.0
 11
-9748.37
 21
94.6
 31
0.0
  0
ARC
  5
711
  8
0
  6
CONTINUOUS
 62
     3
 10
-9813.06
 20
147.3
 30
0.0
 40
15.0
 50
60.0098
 51
165.709
  0
ARC
  5
712
  8
0
  6
CONTINUOUS
 62
     3
 10
-9773.06
 20
216.5
 30
0.0
 40
14.9998
 50
134.259
 51
240.016
  0
ARC
  5
713
  8
0
  6
CONTINUOUS
 62
     3
 10
-9670.12
 20
110.9
 30
0.0
 40
162.5
 50
165.728
 51
194.264
  0
ARC
  5
714
  8
0
  6
CONTINUOUS
 62
     3
 10
-10015.1
 20
402.4
 30
0.0
 40
25.0
 50
0.0
 51
83.1085
  0
ARC
  5
715
  8
0
  6
CONTINUOUS
 62
     3
 10
-10015.1
 20
110.0
 30
0.0
 40
110.0
 50
90.0
 51
180.261
  0
ARC
  5
716
  8
0
  6
CONTINUOUS
 62
     3
 10
-10015.1
 20
402.4
 30
0.0
 40
25.0
 50
96.8927
 51
181.385
  0
CIRCLE
  5
717
  8
0
  6
CONTINUOUS
 62
     3
 10
-10015.1
 20
110.0
 30
0.0
 40
42.0
  0
ARC
  5
718
  8
0
  6
CONTINUOUS
 62
     3
 10
-10015.1
 20
110.0
 30
0.0
 40
275.0
 50
36.0934
 51
84.7861
  0
LINE
  5
719
  8
0
  6
CONTINUOUS
 62
     3
 10
-9990.11
 20
402.4
 30
0.0
 11
-9990.11
 21
219.9
 31
0.0
  0
LINE
  5
71A
  8
0
  6
CONTINUOUS
 62
     3
 10
-10015.1
 20
219.9
 30
0.0
 11
-9978.69
 21
219.9
 31
0.0
  0
LINE
  5
71B
  8
0
  6
CONTINUOUS
 62
     3
 10
-10040.1
 20
402.4
 30
0.0
 11
-10040.1
 21
217.0
 31
0.0
  0
LINE
  5
71C
  8
0
  6
CONTINUOUS
 62
     3
 10
-9978.69
 20
219.9
 30
0.0
 11
-9871.93
 21
127.7
 31
0.0
  0
LINE
  5
71D
  8
0
  6
CONTINUOUS
 62
     3
 10
-9384.82
 20
240.5
 30
0.0
 11
-9203.44
 21
211.1
 31
0.0
  0
LINE
  5
71E
  8
0
  6
CONTINUOUS
 62
     3
 10
-9377.95
 20
282.9
 30
0.0
 11
-9167.84
 21
248.9
 31
0.0
  0
LINE
  5
71F
  8
0
  6
CONTINUOUS
 62
     3
 10
-9645.1
 20
186.9
 30
0.0
 11
-9310.1
 21
78.9
 31
0.0
  0
ARC
  5
720
  8
0
  6
CONTINUOUS
 62
     3
 10
-9670.12
 20
110.9
 30
0.0
 40
162.5
 50
45.7276
 51
74.2636
  0
ARC
  5
721
  8
0
  6
CONTINUOUS
 62
     3
 10
-9567.15
 20
216.5
 30
0.0
 40
15.0001
 50
300.009
 51
45.7082
  0
ARC
  5
722
  8
0
  6
CONTINUOUS
 62
     3
 10
-9527.16
 20
147.3
 30
0.0
 40
15.0
 50
14.2599
 51
120.016
  0
ARC
  5
723
  8
0
  6
CONTINUOUS
 62
     3
 10
-9670.12
 20
110.9
 30
0.0
 40
162.5
 50
11.6256
 51
14.2632
  0
ARC
  5
724
  8
0
  6
CONTINUOUS
 62
     3
 10
-9670.12
 20
110.9
 30
0.0
 40
207.0
 50
80.8059
 51
83.0619
  0
ARC
  5
725
  8
0
  6
CONTINUOUS
 62
     3
 10
-9710.1
 20
252.9
 30
0.0
 40
15.0
 50
0.009339
 51
105.708
  0
ARC
  5
726
  8
0
  6
CONTINUOUS
 62
     3
 10
-9670.12
 20
110.9
 30
0.0
 40
202.5
 50
5.40282
 51
82.9069
  0
ARC
  5
727
  8
0
  6
CONTINUOUS
 62
     3
 10
-9630.12
 20
252.9
 30
0.0
 40
15.0
 50
74.259
 51
180.017
  0
LINE
  5
728
  8
0
  6
CONTINUOUS
 62
     3
 10
-9377.95
 20
282.9
 30
0.0
 11
-9384.82
 21
240.5
 31
0.0
  0
LINE
  5
729
  8
0
  6
CONTINUOUS
 62
     3
 10
-9555.31
 20
277.7
 30
0.0
 11
-9383.3
 21
249.9
 31
0.0
  0
LINE
  5
72A
  8
0
  6
CONTINUOUS
 62
     3
 10
-9637.05
 20
315.2
 30
0.0
 11
-9379.47
 21
273.5
 31
0.0
  0
LINE
  5
72B
  8
0
  6
CONTINUOUS
 62
     3
 10
-9534.62
 20
160.3
 30
0.0
 11
-9544.56
 21
154.5
 31
0.0
  0
LINE
  5
72C
  8
0
  6
CONTINUOUS
 62
     3
 10
-9608.71
 20
175.2
 30
0.0
 11
-9559.61
 21
203.6
 31
0.0
  0
LINE
  5
72D
  8
0
  6
CONTINUOUS
 62
     3
 10
-9645.12
 20
252.9
 30
0.0
 11
-9645.12
 21
188.8
 31
0.0
  0
LINE
  5
72E
  8
0
  6
CONTINUOUS
 62
     3
 10
-9695.11
 20
186.9
 30
0.0
 11
-9695.11
 21
252.9
 31
0.0
  0
LINE
  5
72F
  8
0
  6
CONTINUOUS
 62
     3
 10
-9695.09
 20
326.9
 30
0.0
 11
-9645.1
 21
326.9
 31
0.0
  0
LINE
  5
730
  8
0
  6
CONTINUOUS
 62
     3
 10
-9026.71
 20
186.1
 30
0.0
 11
-8959.79
 21
175.2
 31
0.0
  0
LINE
  5
731
  8
0
  6
CONTINUOUS
 62
     3
 10
-9022.87
 20
221.9
 30
0.0
 11
-8954.04
 21
210.8
 31
0.0
  0
LINE
  5
732
  8
0
  6
CONTINUOUS
 62
     3
 10
-8954.04
 20
210.8
 30
0.0
 11
-8959.79
 21
175.2
 31
0.0
  0
LINE
  5
733
  8
0
  6
CONTINUOUS
 62
     3
 10
-9277.1
 20
132.9
 30
0.0
 11
-9147.1
 21
270.9
 31
0.0
  0
LINE
  5
734
  8
0
  6
CONTINUOUS
 62
     3
 10
-9313.08
 20
71.9
 30
0.0
 11
-9303.03
 21
71.9
 31
0.0
  0
LINE
  5
735
  8
0
  6
CONTINUOUS
 62
     3
 10
-9147.12
 20
270.9
 30
0.0
 11
-9019.11
 21
256.9
 31
0.0
  0
LINE
  5
736
  8
0
  6
CONTINUOUS
 62
     3
 10
-9019.12
 20
256.9
 30
0.0
 11
-9034.13
 21
116.7
 31
0.0
  0
POINT
  5
737
  8
ô_
 62
     1
 10
-2758.1
 20
-674.0
 30
0.0
  0
LINE
  5
738
  8
0
  6
CONTINUOUS
 62
     3
 10
-3505.2
 20
-527.4
 30
0.0
 11
-2877.0
 21
-768.1
 31
0.0
  0
LINE
  5
739
  8
0
  6
CONTINUOUS
 62
     3
 10
-3502.0
 20
-519.0
 30
0.0
 11
-3505.2
 21
-527.4
 31
0.0
  0
LINE
  5
73A
  8
0
  6
CONTINUOUS
 62
     3
 10
-2697.9
 20
-819.0
 30
0.0
 11
-2860.1
 21
-779.3
 31
0.0
  0
ARC
  5
73B
  8
0
  6
CONTINUOUS
 62
     3
 10
-2853.0
 20
-750.1
 30
0.0
 40
30.0
 50
180.0
 51
256.228
  0
LINE
  5
73C
  8
0
  6
CONTINUOUS
 62
     3
 10
-2883.0
 20
-519.0
 30
0.0
 11
-2883.0
 21
-750.1
 31
0.0
  0
CIRCLE
  5
73D
  8
0
  6
CONTINUOUS
 62
     3
 10
-2758.1
 20
-674.0
 30
0.0
 40
49.9999
  0
ARC
  5
73E
  8
0
  6
CONTINUOUS
 62
     3
 10
-2574.5
 20
-589.0
 30
0.0
 40
60.0
 50
89.9963
 51
165.067
  0
LINE
  5
73F
  8
0
  6
CONTINUOUS
 62
     3
 10
-2574.5
 20
-529.0
 30
0.0
 11
-2568.0
 21
-529.0
 31
0.0
  0
LINE
  5
740
  8
0
  6
CONTINUOUS
 62
     3
 10
-2568.0
 20
-519.0
 30
0.0
 11
-2568.0
 21
-529.0
 31
0.0
  0
LINE
  5
741
  8
0
  6
CONTINUOUS
 62
     3
 10
-2697.9
 20
-819.0
 30
0.0
 11
-2632.5
 21
-573.5
 31
0.0
  0
POINT
  5
742
  8
ô_
 62
     1
 10
0.0
 20
0.0
 30
0.0
  0
CIRCLE
  5
743
  8
0
  6
CONTINUOUS
 62
     3
 10
0.0
 20
0.0
 30
0.0
 40
76.2
  0
LINE
  5
744
  8
0
  6
CONTINUOUS
 62
     3
 10
51.0
 20
116.0
 30
0.0
 11
116.0
 21
51.0
 31
0.0
  0
CIRCLE
  5
745
  8
0
  6
CONTINUOUS
 62
     3
 10
0.0
 20
0.0
 30
0.0
 40
57.5
  0
LINE
  5
746
  8
0
  6
CONTINUOUS
 62
     3
 10
116.0
 20
-155.0
 30
0.0
 11
-254.0
 21
-519.0
 31
0.0
  0
LINE
  5
747
  8
0
  6
CONTINUOUS
 62
     3
 10
116.0
 20
51.0
 30
0.0
 11
116.0
 21
-155.0
 31
0.0
  0
ENDBLK
  5
748
  8
0
  0
BLOCK
  8
0
  2
B100142
 70
     0
 10
0.0
 20
0.0
 30
0.0
  3
B100142
  1

  0
LINE
  5
7C2
  8
0
  6
CONTINUOUS
 62
     3
 10
-9304.1
 20
-519.0
 30
0.0
 11
-254.0
 21
-519.0
 31
0.0
  0
LINE
  5
7C3
  8
0
  6
CONTINUOUS
 62
     3
 10
-9034.4
 20
116.0
 30
0.0
 11
51.0
 21
116.0
 31
0.0
  0
LINE
  5
7C4
  8
0
  6
CONTINUOUS
 62
     3
 10
-13520.1
 20
317.4
 30
0.0
 11
-9385.7
 21
224.1
 31
0.0
  0
LINE
  5
7C5
  8
0
  6
CONTINUOUS
 62
     3
 10
-13454.3
 20
291.9
 30
0.0
 11
-9386.2
 21
200.1
 31
0.0
  0
LINE
  5
7C6
  8
0
  6
CONTINUOUS
 62
     3
 10
-13188.1
 20
71.9
 30
0.0
 11
-9303.0
 21
71.9
 31
0.0
  0
LINE
  5
7C7
  8
0
  6
CONTINUOUS
 62
     3
 10
-13426.0
 20
-489.1
 30
0.0
 11
-9541.2
 21
-489.1
 31
0.0
  0
LINE
  5
7C8
  8
0
  6
CONTINUOUS
 62
     3
 10
-17547.1
 20
-458.1
 30
0.0
 11
-13625.1
 21
-458.1
 31
0.0
  0
LINE
  5
7C9
  8
0
  6
CONTINUOUS
 62
     3
 10
-17481.0
 20
28.9
 30
0.0
 11
-13730.3
 21
28.9
 31
0.0
  0
ARC
  5
7CA
  8
0
  6
CONTINUOUS
 62
     3
 10
-17765.1
 20
110.0
 30
0.0
 40
275.0
 50
95.2154
 51
246.422
  0
ARC
  5
7CB
  8
0
  6
CONTINUOUS
 62
     3
 10
-17765.1
 20
110.0
 30
0.0
 40
275.0
 50
342.0779
 51
84.7853
  0
LINE
  5
7CC
  8
0
  6
CONTINUOUS
 62
     3
 10
-17740.1
 20
402.5
 30
0.0
 11
-17740.1
 21
220.0
 31
0.0
  0
LINE
  5
7CD
  8
0
  6
CONTINUOUS
 62
     3
 10
-17790.1
 20
402.5
 30
0.0
 11
-17790.1
 21
217.0
 31
0.0
  0
ARC
  5
7CE
  8
0
  6
CONTINUOUS
 62
     3
 10
-17825.1
 20
-134.9
 30
0.0
 40
50.0
 50
180.002
 51
257.324
  0
ARC
  5
7CF
  8
0
  6
CONTINUOUS
 62
     3
 10
-17765.1
 20
110.0
 30
0.0
 40
110.0
 50
90.0
 51
180.261
  0
ARC
  5
7D0
  8
0
  6
CONTINUOUS
 62
     3
 10
-17940.0
 20
-820.0
 30
0.0
 40
295.008
 50
89.443928
 51
30.562499
  0
LINE
  5
7D1
  8
0
  6
CONTINUOUS
 62
     3
 10
-17867.6
 20
-945.7
 30
0.0
 11
-17833.9
 21
-926.2
 31
0.0
  0
LINE
  5
7D2
  8
0
  6
CONTINUOUS
 62
     3
 10
-18085.0
 20
-781.2
 30
0.0
 11
-17814.2
 21
-312.0
 31
0.0
  0
CIRCLE
  5
7D3
  8
0
  6
CONTINUOUS
 62
     3
 10
-17940.0
 20
-820.0
 30
0.0
 40
64.9999
  0
CIRCLE
  5
7D4
  8
0
  6
CONTINUOUS
 62
     3
 10
-17940.0
 20
-820.0
 30
0.0
 40
76.1997
  0
ARC
  5
7D5
  8
0
  6
CONTINUOUS
 62
     3
 10
-17940.0
 20
-820.0
 30
0.0
 40
145.0
 50
180.1
 51
300.054
  0
LINE
  5
7D6
  8
0
  6
CONTINUOUS
 62
     3
 10
-18085.0
 20
-820.3
 30
0.0
 11
-18085.0
 21
-781.1
 31
0.0
  0
LINE
  5
7D7
  8
0
  6
CONTINUOUS
 62
     3
 10
-17875.1
 20
110.5
 30
0.0
 11
-17875.1
 21
-134.9
 31
0.0
  0
LINE
  5
7D8
  8
0
  6
CONTINUOUS
 62
     3
 10
-17527.0
 20
-724.2
 30
0.0
 11
-17650.3
 21
-608.2
 31
0.0
  0
LINE
  5
7D9
  8
0
  6
CONTINUOUS
 62
     3
 10
-17833.9
 20
-926.2
 30
0.0
 11
-17563.0
 21
-457.0
 31
0.0
  0
LINE
  5
7DA
  8
0
  6
CONTINUOUS
 62
     3
 10
-17455.0
 20
-655.0
 30
0.0
 11
-17588.3
 21
-500.8
 31
0.0
  0
ARC
  5
7DB
  8
0
  6
CONTINUOUS
 62
     3
 10
-17492.8
 20
-687.7
 30
0.0
 40
49.9997
 50
226.826
 51
40.8399
  0
LINE
  5
7DC
  8
0
  6
CONTINUOUS
 62
     3
 10
-17681.5
 20
-156.5
 30
0.0
 11
-17663.6
 21
-76.9
 31
0.0
  0
LINE
  5
7DD
  8
0
  6
CONTINUOUS
 62
     3
 10
-17547.1
 20
-265.224848
 30
0.0
 11
-17481.0
 21
28.9
 31
0.0
  0
LINE
  5
7DE
  8
0
  6
CONTINUOUS
 62
     3
 10
-17678.5
 20
-143.3
 30
0.0
 11
-17814.2
 21
-312.0
 31
0.0
  0
ARC
  5
7DF
  8
0
  6
CONTINUOUS
 62
     3
 10
-17623.0
 20
-170.0
 30
0.0
 40
59.9998
 50
166.933
 51
257.324
  0
LINE
  5
7E0
  8
0
  6
CONTINUOUS
 62
     3
 10
-17730.2
 20
-207.5
 30
0.0
 11
-17836.1
 21
-183.6
 31
0.0
  0
LINE
  5
7E1
  8
0
  6
CONTINUOUS
 62
     3
 10
-17547.1
 20
-496.1
 30
0.0
 11
-17500.1
 21
-496.1
 31
0.0
  0
LINE
  5
7E2
  8
0
  6
CONTINUOUS
 62
     3
 10
-17563.0
 20
-245.0
 30
0.0
 11
-17563.0
 21
-457.1
 31
0.0
  0
LINE
  5
7E3
  8
0
  6
CONTINUOUS
 62
     3
 10
-17547.1
 20
-265.224848
 30
0.0
 11
-17547.1
 21
-496.1
 31
0.0
  0
LINE
  5
7E4
  8
0
  6
CONTINUOUS
 62
     3
 10
-17543.6
 20
-249.4
 30
0.0
 11
-17636.6
 21
-228.5
 31
0.0
  0
LINE
  5
7E5
  8
0
  6
CONTINUOUS
 62
     3
 10
-17500.1
 20
-496.1
 30
0.0
 11
-17500.1
 21
-458.1
 31
0.0
  0
CIRCLE
  5
7E6
  8
0
  6
CONTINUOUS
 62
     3
 10
-17765.1
 20
110.0
 30
0.0
 40
72.5002
  0
CIRCLE
  5
7E7
  8
0
  6
CONTINUOUS
 62
     3
 10
-17765.1
 20
110.0
 30
0.0
 40
42.0
  0
LINE
  5
7E8
  8
0
  6
CONTINUOUS
 62
     3
 10
-17765.1
 20
220.0
 30
0.0
 11
-17728.7
 21
220.0
 31
0.0
  0
LINE
  5
7E9
  8
0
  6
CONTINUOUS
 62
     3
 10
-17512.4
 20
-110.9
 30
0.0
 11
-17663.6
 21
-76.9
 31
0.0
  0
LINE
  5
7EA
  8
0
  6
CONTINUOUS
 62
     3
 10
-17728.7
 20
220.0
 30
0.0
 11
-17485.3
 21
9.7
 31
0.0
  0
ARC
  5
7EB
  8
0
  6
CONTINUOUS
 62
     3
 10
-17765.1
 20
402.5
 30
0.0
 40
25.0
 50
0.0
 51
83.1085
  0
ARC
  5
7EC
  8
0
  6
CONTINUOUS
 62
     3
 10
-17765.1
 20
402.5
 30
0.0
 40
25.0
 50
96.8927
 51
181.385
  0
ARC
  5
7ED
  8
0
  6
CONTINUOUS
 62
     3
 10
-13545.1
 20
110.9
 30
0.0
 40
202.5
 50
97.0889
 51
276.699
  0
ARC
  5
7EE
  8
0
  6
CONTINUOUS
 62
     3
 10
-13545.1
 20
110.9
 30
0.0
 40
202.5
 50
5.40282
 51
82.9069
  0
LINE
  5
7EF
  8
0
  6
CONTINUOUS
 62
     3
 10
-13520.1
 20
326.9
 30
0.0
 11
-13520.1
 21
45.9
 31
0.0
  0
LINE
  5
7F0
  8
0
  6
CONTINUOUS
 62
     3
 10
-13570.1
 20
326.9
 30
0.0
 11
-13570.1
 21
45.9
 31
0.0
  0
ARC
  5
7F1
  8
0
  6
CONTINUOUS
 62
     3
 10
-13605.6
 20
-144.2
 30
0.0
 40
99.9997
 50
337.017
 51
29.9994
  0
LINE
  5
7F2
  8
0
  6
CONTINUOUS
 62
     3
 10
-13445.1
 20
-534.1
 30
0.0
 11
-13185.1
 21
78.9
 31
0.0
  0
LINE
  5
7F3
  8
0
  6
CONTINUOUS
 62
     3
 10
-13600.1
 20
-534.1
 30
0.0
 11
-13445.1
 21
-534.1
 31
0.0
  0
LINE
  5
7F4
  8
0
  6
CONTINUOUS
 62
     3
 10
-13625.1
 20
-509.1
 30
0.0
 11
-13600.1
 21
-534.1
 31
0.0
  0
LINE
  5
7F5
  8
0
  6
CONTINUOUS
 62
     3
 10
-13625.1
 20
-446.3
 30
0.0
 11
-13625.1
 21
-509.1
 31
0.0
  0
LINE
  5
7F6
  8
0
  6
CONTINUOUS
 62
     3
 10
-13625.1
 20
-473.1
 30
0.0
 11
-13625.1
 21
-496.1
 31
0.0
  0
LINE
  5
7F7
  8
0
  6
CONTINUOUS
 62
     3
 10
-13625.1
 20
-446.3
 30
0.0
 11
-13513.6
 21
-183.3
 31
0.0
  0
LINE
  5
7F8
  8
0
  6
CONTINUOUS
 62
     3
 10
-13520.1
 20
186.9
 30
0.0
 11
-13185.1
 21
78.9
 31
0.0
  0
ARC
  5
7F9
  8
0
  6
CONTINUOUS
 62
     3
 10
-13402.2
 20
147.3
 30
0.0
 40
15.0
 50
14.2599
 51
120.016
  0
ARC
  5
7FA
  8
0
  6
CONTINUOUS
 62
     3
 10
-13545.1
 20
110.9
 30
0.0
 40
162.5
 50
11.6256
 51
14.2632
  0
ARC
  5
7FB
  8
0
  6
CONTINUOUS
 62
     3
 10
-13545.1
 20
110.9
 30
0.0
 40
162.5
 50
45.7276
 51
74.2636
  0
ARC
  5
7FC
  8
0
  6
CONTINUOUS
 62
     3
 10
-13505.1
 20
252.9
 30
0.0
 40
15.0
 50
74.259
 51
180.017
  0
ARC
  5
7FD
  8
0
  6
CONTINUOUS
 62
     3
 10
-13585.1
 20
252.9
 30
0.0
 40
15.0
 50
0.009339
 51
105.708
  0
ARC
  5
7FE
  8
0
  6
CONTINUOUS
 62
     3
 10
-13688.1
 20
147.3
 30
0.0
 40
15.0
 50
60.0098
 51
165.709
  0
ARC
  5
7FF
  8
0
  6
CONTINUOUS
 62
     3
 10
-13648.1
 20
216.6
 30
0.0
 40
14.9998
 50
134.259
 51
240.016
  0
ARC
  5
800
  8
0
  6
CONTINUOUS
 62
     3
 10
-13545.1
 20
110.9
 30
0.0
 40
162.5
 50
105.728
 51
134.264
  0
ARC
  5
801
  8
0
  6
CONTINUOUS
 62
     3
 10
-13585.1
 20
-31.0
 30
0.0
 40
15.0
 50
254.259
 51
0.016788
  0
ARC
  5
802
  8
0
  6
CONTINUOUS
 62
     3
 10
-13688.1
 20
74.6
 30
0.0
 40
15.0
 50
194.26
 51
300.016
  0
ARC
  5
803
  8
0
  6
CONTINUOUS
 62
     3
 10
-13648.1
 20
5.3
 30
0.0
 40
15.0001
 50
120.009
 51
225.708
  0
ARC
  5
804
  8
0
  6
CONTINUOUS
 62
     3
 10
-13545.1
 20
110.9
 30
0.0
 40
162.5
 50
225.728
 51
254.264
  0
ARC
  5
805
  8
0
  6
CONTINUOUS
 62
     3
 10
-13545.1
 20
110.9
 30
0.0
 40
80.0
 50
108.199
 51
210.313
  0
ARC
  5
806
  8
0
  6
CONTINUOUS
 62
     3
 10
-13545.1
 20
110.9
 30
0.0
 40
162.5
 50
165.728
 51
194.264
  0
ARC
  5
807
  8
0
  6
CONTINUOUS
 62
     3
 10
-13442.2
 20
216.5
 30
0.0
 40
15.0001
 50
300.009
 51
45.7082
  0
LINE
  5
808
  8
0
  6
CONTINUOUS
 62
     3
 10
-13409.6
 20
160.3
 30
0.0
 11
-13419.6
 21
154.6
 31
0.0
  0
LINE
  5
809
  8
0
  6
CONTINUOUS
 62
     3
 10
-13483.7
 20
175.2
 30
0.0
 11
-13434.6
 21
203.6
 31
0.0
  0
LINE
  5
80A
  8
0
  6
CONTINUOUS
 62
     3
 10
-13520.1
 20
252.9
 30
0.0
 11
-13520.1
 21
188.8
 31
0.0
  0
LINE
  5
80B
  8
0
  6
CONTINUOUS
 62
     3
 10
-13570.1
 20
186.9
 30
0.0
 11
-13570.1
 21
252.9
 31
0.0
  0
LINE
  5
80C
  8
0
  6
CONTINUOUS
 62
     3
 10
-13623.4
 20
127.3
 30
0.0
 11
-13680.6
 21
160.3
 31
0.0
  0
LINE
  5
80D
  8
0
  6
CONTINUOUS
 62
     3
 10
-13655.6
 20
203.6
 30
0.0
 11
-13598.4
 21
170.6
 31
0.0
  0
LINE
  5
80E
  8
0
  6
CONTINUOUS
 62
     3
 10
-13570.1
 20
45.9
 30
0.0
 11
-13520.1
 21
45.9
 31
0.0
  0
LINE
  5
80F
  8
0
  6
CONTINUOUS
 62
     3
 10
-13570.1
 20
-31.0
 30
0.0
 11
-13570.1
 21
-5.8
 31
0.0
  0
LINE
  5
810
  8
0
  6
CONTINUOUS
 62
     3
 10
-13614.2
 20
70.6
 30
0.0
 11
-13519.0
 21
-94.2
 31
0.0
  0
LINE
  5
811
  8
0
  6
CONTINUOUS
 62
     3
 10
-13680.5
 20
61.6
 30
0.0
 11
-13623.4
 21
94.6
 31
0.0
  0
LINE
  5
812
  8
0
  6
CONTINUOUS
 62
     3
 10
-13601.8
 20
49.3
 30
0.0
 11
-13655.5
 21
18.3
 31
0.0
  0
LINE
  5
813
  8
0
  6
CONTINUOUS
 62
     3
 10
-13570.1
 20
326.9
 30
0.0
 11
-13520.1
 21
326.9
 31
0.0
  0
LINE
  5
814
  8
0
  6
CONTINUOUS
 62
     3
 10
-8440.0
 20
50.0
 30
0.0
 11
-7660.0
 21
50.0
 31
0.0
  0
LINE
  5
815
  8
0
  6
CONTINUOUS
 62
     3
 10
-9323.6
 20
-565.0
 30
0.0
 11
-9034.1
 21
116.8
 31
0.0
  0
LINE
  5
816
  8
0
  6
CONTINUOUS
 62
     3
 10
-9550.1
 20
-510.0
 30
0.0
 11
-9277.1
 21
133.0
 31
0.0
  0
LINE
  5
817
  8
0
  6
CONTINUOUS
 62
     3
 10
-9550.1
 20
-504.1
 30
0.0
 11
-9550.1
 21
-527.1
 31
0.0
  0
LINE
  5
818
  8
0
  6
CONTINUOUS
 62
     3
 10
-9550.1
 20
-510.1
 30
0.0
 11
-9550.1
 21
-540.1
 31
0.0
  0
LINE
  5
819
  8
0
  6
CONTINUOUS
 62
     3
 10
-9550.1
 20
-540.1
 30
0.0
 11
-9525.1
 21
-565.1
 31
0.0
  0
LINE
  5
81A
  8
0
  6
CONTINUOUS
 62
     3
 10
-9525.1
 20
-565.1
 30
0.0
 11
-9323.6
 21
-565.1
 31
0.0
  0
LINE
  5
81B
  8
0
  6
CONTINUOUS
 62
     3
 10
-9386.4
 20
190.6
 30
0.0
 11
-9226.1
 21
187.0
 31
0.0
  0
LINE
  5
81C
  8
0
  6
CONTINUOUS
 62
     3
 10
-9385.4
 20
233.6
 30
0.0
 11
-9186.5
 21
229.1
 31
0.0
  0
LINE
  5
81D
  8
0
  6
CONTINUOUS
 62
     3
 10
-9385.4
 20
233.6
 30
0.0
 11
-9386.4
 21
190.6
 31
0.0
  0
LINE
  5
81E
  8
0
  6
CONTINUOUS
 62
     3
 10
-9024.2
 20
186.0
 30
0.0
 11
-8956.5
 21
184.4
 31
0.0
  0
LINE
  5
81F
  8
0
  6
CONTINUOUS
 62
     3
 10
-9025.4
 20
222.0
 30
0.0
 11
-8955.6
 21
220.4
 31
0.0
  0
LINE
  5
820
  8
0
  6
CONTINUOUS
 62
     3
 10
-8955.6
 20
220.4
 30
0.0
 11
-8956.5
 21
184.4
 31
0.0
  0
LINE
  5
821
  8
0
  6
CONTINUOUS
 62
     3
 10
-9147.1
 20
270.9
 30
0.0
 11
-9019.1
 21
256.9
 31
0.0
  0
LINE
  5
822
  8
0
  6
CONTINUOUS
 62
     3
 10
-9277.1
 20
132.9
 30
0.0
 11
-9147.1
 21
270.9
 31
0.0
  0
LINE
  5
823
  8
0
  6
CONTINUOUS
 62
     3
 10
-9019.1
 20
256.9
 30
0.0
 11
-9034.1
 21
116.7
 31
0.0
  0
LINE
  5
824
  8
0
  6
CONTINUOUS
 62
     3
 10
-8440.0
 20
50.0
 30
0.0
 11
-8500.0
 21
110.0
 31
0.0
  0
LINE
  5
825
  8
0
  6
CONTINUOUS
 62
     3
 10
-7660.0
 20
50.0
 30
0.0
 11
-7600.0
 21
110.0
 31
0.0
  0
POINT
  5
826
  8
ô_
 62
     1
 10
0.0
 20
0.0
 30
0.0
  0
LINE
  5
827
  8
0
  6
CONTINUOUS
 62
     3
 10
51.0
 20
116.0
 30
0.0
 11
116.0
 21
51.0
 31
0.0
  0
LINE
  5
828
  8
0
  6
CONTINUOUS
 62
     3
 10
116.0
 20
-155.0
 30
0.0
 11
-254.0
 21
-519.0
 31
0.0
  0
LINE
  5
829
  8
0
  6
CONTINUOUS
 62
     3
 10
-3505.2
 20
-527.4
 30
0.0
 11
-2877.0
 21
-768.1
 31
0.0
  0
LINE
  5
82A
  8
0
  6
CONTINUOUS
 62
     3
 10
-3502.0
 20
-518.9
 30
0.0
 11
-3505.2
 21
-527.4
 31
0.0
  0
POINT
  5
82B
  8
ô_
 62
     1
 10
-2758.1
 20
-674.0
 30
0.0
  0
LINE
  5
82C
  8
0
  6
CONTINUOUS
 62
     3
 10
-2697.9
 20
-819.0
 30
0.0
 11
-2632.5
 21
-573.5
 31
0.0
  0
LINE
  5
82D
  8
0
  6
CONTINUOUS
 62
     3
 10
-2883.0
 20
-519.0
 30
0.0
 11
-2883.0
 21
-750.1
 31
0.0
  0
CIRCLE
  5
82E
  8
0
  6
CONTINUOUS
 62
     3
 10
-2758.1
 20
-674.0
 30
0.0
 40
49.9999
  0
LINE
  5
82F
  8
0
  6
CONTINUOUS
 62
     3
 10
-2697.9
 20
-819.0
 30
0.0
 11
-2860.1
 21
-779.3
 31
0.0
  0
ARC
  5
830
  8
0
  6
CONTINUOUS
 62
     3
 10
-2853.0
 20
-750.1
 30
0.0
 40
30.0
 50
180.0
 51
256.228
  0
ARC
  5
831
  8
0
  6
CONTINUOUS
 62
     3
 10
-2574.5
 20
-589.0
 30
0.0
 40
60.0
 50
89.9963
 51
165.067
  0
LINE
  5
832
  8
0
  6
CONTINUOUS
 62
     3
 10
-2574.5
 20
-529.0
 30
0.0
 11
-2568.0
 21
-529.0
 31
0.0
  0
LINE
  5
833
  8
0
  6
CONTINUOUS
 62
     3
 10
-2568.0
 20
-519.0
 30
0.0
 11
-2568.0
 21
-529.0
 31
0.0
  0
CIRCLE
  5
834
  8
0
  6
CONTINUOUS
 62
     3
 10
0.0
 20
0.0
 30
0.0
 40
57.5
  0
CIRCLE
  5
835
  8
0
  6
CONTINUOUS
 62
     3
 10
0.0
 20
0.0
 30
0.0
 40
76.2
  0
LINE
  5
836
  8
0
  6
CONTINUOUS
 62
     3
 10
116.0
 20
51.0
 30
0.0
 11
116.0
 21
-155.0
 31
0.0
  0
ENDBLK
  5
837
  8
0
  0
BLOCK
  8
0
  2
B100143
 70
     0
 10
0.0
 20
0.0
 30
0.0
  3
B100143
  1

  0
LINE
  5
8B0
  8
0
  6
CONTINUOUS
 62
     3
 10
-17331.2
 20
292.8
 30
0.0
 11
-9386.1
 21
196.2
 31
0.0
  0
LINE
  5
8B1
  8
0
  6
CONTINUOUS
 62
     3
 10
-17395.1
 20
317.6
 30
0.0
 11
-9385.8
 21
220.2
 31
0.0
  0
LINE
  5
8B2
  8
0
  6
CONTINUOUS
 62
     3
 10
-17301.0
 20
-489.1
 30
0.0
 11
-9541.2
 21
-489.1
 31
0.0
  0
LINE
  5
8B3
  8
0
  6
CONTINUOUS
 62
     3
 10
-17063.0
 20
71.9
 30
0.0
 11
-9303.0
 21
71.9
 31
0.0
  0
LINE
  5
8B4
  8
0
  6
CONTINUOUS
 62
     3
 10
-25297.06
 20
-458.1
 30
0.0
 11
-17500.1
 21
-458.1
 31
0.0
  0
LINE
  5
8B5
  8
0
  6
CONTINUOUS
 62
     3
 10
-25230.91
 20
28.9
 30
0.0
 11
-17605.2
 21
28.9
 31
0.0
  0
ARC
  5
8B6
  8
0
  6
CONTINUOUS
 62
     3
 10
-25515.06
 20
109.9
 30
0.0
 40
275.0
 50
95.2154
 51
246.422
  0
ARC
  5
8B7
  8
0
  6
CONTINUOUS
 62
     3
 10
-25515.06
 20
109.9
 30
0.0
 40
275.0
 50
342.0779
 51
84.7853
  0
LINE
  5
8B8
  8
0
  6
CONTINUOUS
 62
     3
 10
-25540.06
 20
402.4
 30
0.0
 11
-25540.06
 21
217.0
 31
0.0
  0
LINE
  5
8B9
  8
0
  6
CONTINUOUS
 62
     3
 10
-25490.07
 20
402.4
 30
0.0
 11
-25490.07
 21
219.9
 31
0.0
  0
ARC
  5
8BA
  8
0
  6
CONTINUOUS
 62
     3
 10
-25689.99
 20
-820.1
 30
0.0
 40
295.008
 50
89.440909
 51
30.561246
  0
LINE
  5
8BB
  8
0
  6
CONTINUOUS
 62
     3
 10
-25204.93
 20
-655.1
 30
0.0
 11
-25338.25
 21
-500.9
 31
0.0
  0
LINE
  5
8BC
  8
0
  6
CONTINUOUS
 62
     3
 10
-25834.97
 20
-781.2
 30
0.0
 11
-25564.13
 21
-312.1
 31
0.0
  0
LINE
  5
8BD
  8
0
  6
CONTINUOUS
 62
     3
 10
-25583.83
 20
-926.2
 30
0.0
 11
-25312.98
 21
-457.1
 31
0.0
  0
ARC
  5
8BE
  8
0
  6
CONTINUOUS
 62
     3
 10
-25689.99
 20
-820.1
 30
0.0
 40
145.0
 50
180.1
 51
300.054
  0
CIRCLE
  5
8BF
  8
0
  6
CONTINUOUS
 62
     3
 10
-25689.99
 20
-820.1
 30
0.0
 40
76.1997
  0
CIRCLE
  5
8C0
  8
0
  6
CONTINUOUS
 62
     3
 10
-25689.99
 20
-820.1
 30
0.0
 40
64.9999
  0
LINE
  5
8C1
  8
0
  6
CONTINUOUS
 62
     3
 10
-25834.92
 20
-820.3
 30
0.0
 11
-25834.92
 21
-781.1
 31
0.0
  0
LINE
  5
8C2
  8
0
  6
CONTINUOUS
 62
     3
 10
-25617.58
 20
-945.7
 30
0.0
 11
-25583.84
 21
-926.2
 31
0.0
  0
ARC
  5
8C3
  8
0
  6
CONTINUOUS
 62
     3
 10
-25242.78
 20
-687.8
 30
0.0
 40
49.9997
 50
226.826
 51
40.8399
  0
LINE
  5
8C4
  8
0
  6
CONTINUOUS
 62
     3
 10
-25277.01
 20
-724.2
 30
0.0
 11
-25400.28
 21
-608.3
 31
0.0
  0
CIRCLE
  5
8C5
  8
0
  6
CONTINUOUS
 62
     3
 10
-25515.06
 20
109.9
 30
0.0
 40
72.5001
  0
CIRCLE
  5
8C6
  8
0
  6
CONTINUOUS
 62
     3
 10
-25515.06
 20
109.9
 30
0.0
 40
42.0
  0
LINE
  5
8C7
  8
0
  6
CONTINUOUS
 62
     3
 10
-25515.06
 20
219.9
 30
0.0
 11
-25478.65
 21
219.9
 31
0.0
  0
LINE
  5
8C8
  8
0
  6
CONTINUOUS
 62
     3
 10
-25480.12
 20
-207.5
 30
0.0
 11
-25586.03
 21
-183.7
 31
0.0
  0
LINE
  5
8C9
  8
0
  6
CONTINUOUS
 62
     3
 10
-25428.46
 20
-143.3
 30
0.0
 11
-25564.13
 21
-312.1
 31
0.0
  0
LINE
  5
8CA
  8
0
  6
CONTINUOUS
 62
     3
 10
-25625.06
 20
110.4
 30
0.0
 11
-25625.06
 21
-134.9
 31
0.0
  0
ARC
  5
8CB
  8
0
  6
CONTINUOUS
 62
     3
 10
-25575.06
 20
-134.9
 30
0.0
 40
50.0
 50
180.002
 51
257.324
  0
ARC
  5
8CC
  8
0
  6
CONTINUOUS
 62
     3
 10
-25515.06
 20
109.9
 30
0.0
 40
110.0
 50
90.0
 51
180.261
  0
LINE
  5
8CD
  8
0
  6
CONTINUOUS
 62
     3
 10
-25431.42
 20
-156.5
 30
0.0
 11
-25413.52
 21
-76.9
 31
0.0
  0
LINE
  5
8CE
  8
0
  6
CONTINUOUS
 62
     3
 10
-25262.36
 20
-110.9
 30
0.0
 11
-25413.52
 21
-76.9
 31
0.0
  0
LINE
  5
8CF
  8
0
  6
CONTINUOUS
 62
     3
 10
-25296.58
 20
-263.0
 30
0.0
 11
-25230.91
 21
28.9
 31
0.0
  0
ARC
  5
8D0
  8
0
  6
CONTINUOUS
 62
     3
 10
-25373.0
 20
-170.1
 30
0.0
 40
59.9998
 50
166.933
 51
257.324
  0
LINE
  5
8D1
  8
0
  6
CONTINUOUS
 62
     3
 10
-25250.07
 20
-496.1
 30
0.0
 11
-25250.07
 21
-458.1
 31
0.0
  0
LINE
  5
8D2
  8
0
  6
CONTINUOUS
 62
     3
 10
-25293.52
 20
-249.4
 30
0.0
 11
-25386.54
 21
-228.5
 31
0.0
  0
LINE
  5
8D3
  8
0
  6
CONTINUOUS
 62
     3
 10
-25297.06
 20
-267.2
 30
0.0
 11
-25297.06
 21
-496.1
 31
0.0
  0
LINE
  5
8D4
  8
0
  6
CONTINUOUS
 62
     3
 10
-25312.98
 20
-245.1
 30
0.0
 11
-25312.98
 21
-457.1
 31
0.0
  0
LINE
  5
8D5
  8
0
  6
CONTINUOUS
 62
     3
 10
-25297.06
 20
-496.1
 30
0.0
 11
-25250.07
 21
-496.1
 31
0.0
  0
LINE
  5
8D6
  8
0
  6
CONTINUOUS
 62
     3
 10
-25478.65
 20
219.9
 30
0.0
 11
-25235.25
 21
9.6
 31
0.0
  0
ARC
  5
8D7
  8
0
  6
CONTINUOUS
 62
     3
 10
-25515.06
 20
402.4
 30
0.0
 40
25.0
 50
0.0
 51
83.1085
  0
ARC
  5
8D8
  8
0
  6
CONTINUOUS
 62
     3
 10
-25515.06
 20
402.4
 30
0.0
 40
25.0
 50
96.8927
 51
181.385
  0
ARC
  5
8D9
  8
0
  6
CONTINUOUS
 62
     3
 10
-17420.1
 20
110.9
 30
0.0
 40
202.5
 50
5.40282
 51
82.9069
  0
ARC
  5
8DA
  8
0
  6
CONTINUOUS
 62
     3
 10
-17420.1
 20
110.9
 30
0.0
 40
162.5
 50
45.7276
 51
74.2636
  0
LINE
  5
8DB
  8
0
  6
CONTINUOUS
 62
     3
 10
-17358.7
 20
175.2
 30
0.0
 11
-17309.6
 21
203.5
 31
0.0
  0
LINE
  5
8DC
  8
0
  6
CONTINUOUS
 62
     3
 10
-17475.1
 20
-534.1
 30
0.0
 11
-17320.1
 21
-534.1
 31
0.0
  0
LINE
  5
8DD
  8
0
  6
CONTINUOUS
 62
     3
 10
-17395.1
 20
186.9
 30
0.0
 11
-17060.1
 21
78.9
 31
0.0
  0
ARC
  5
8DE
  8
0
  6
CONTINUOUS
 62
     3
 10
-17480.6
 20
-144.3
 30
0.0
 40
99.9997
 50
337.017
 51
29.9994
  0
ARC
  5
8DF
  8
0
  6
CONTINUOUS
 62
     3
 10
-17420.1
 20
110.9
 30
0.0
 40
202.5
 50
97.0889
 51
276.699
  0
LINE
  5
8E0
  8
0
  6
CONTINUOUS
 62
     3
 10
-17500.1
 20
-509.1
 30
0.0
 11
-17475.1
 21
-534.1
 31
0.0
  0
LINE
  5
8E1
  8
0
  6
CONTINUOUS
 62
     3
 10
-17500.1
 20
-446.3
 30
0.0
 11
-17500.1
 21
-509.1
 31
0.0
  0
LINE
  5
8E2
  8
0
  6
CONTINUOUS
 62
     3
 10
-17500.1
 20
-473.1
 30
0.0
 11
-17500.1
 21
-496.1
 31
0.0
  0
LINE
  5
8E3
  8
0
  6
CONTINUOUS
 62
     3
 10
-17500.1
 20
-446.3
 30
0.0
 11
-17388.5
 21
-183.3
 31
0.0
  0
ARC
  5
8E4
  8
0
  6
CONTINUOUS
 62
     3
 10
-17420.1
 20
110.9
 30
0.0
 40
162.5
 50
105.728
 51
134.264
  0
ARC
  5
8E5
  8
0
  6
CONTINUOUS
 62
     3
 10
-17523.0
 20
216.5
 30
0.0
 40
14.9998
 50
134.259
 51
240.016
  0
ARC
  5
8E6
  8
0
  6
CONTINUOUS
 62
     3
 10
-17380.1
 20
252.8
 30
0.0
 40
15.0
 50
74.259
 51
180.017
  0
ARC
  5
8E7
  8
0
  6
CONTINUOUS
 62
     3
 10
-17460.1
 20
252.8
 30
0.0
 40
15.0
 50
0.009339
 51
105.708
  0
ARC
  5
8E8
  8
0
  6
CONTINUOUS
 62
     3
 10
-17563.0
 20
147.2
 30
0.0
 40
15.0
 50
60.0098
 51
165.709
  0
ARC
  5
8E9
  8
0
  6
CONTINUOUS
 62
     3
 10
-17420.1
 20
110.9
 30
0.0
 40
162.5
 50
225.728
 51
254.264
  0
ARC
  5
8EA
  8
0
  6
CONTINUOUS
 62
     3
 10
-17523.0
 20
5.3
 30
0.0
 40
15.0001
 50
120.009
 51
225.708
  0
ARC
  5
8EB
  8
0
  6
CONTINUOUS
 62
     3
 10
-17460.1
 20
-31.1
 30
0.0
 40
15.0
 50
254.259
 51
0.016788
  0
ARC
  5
8EC
  8
0
  6
CONTINUOUS
 62
     3
 10
-17563.0
 20
74.5
 30
0.0
 40
15.0
 50
194.26
 51
300.016
  0
ARC
  5
8ED
  8
0
  6
CONTINUOUS
 62
     3
 10
-17420.1
 20
110.9
 30
0.0
 40
80.0
 50
108.199
 51
210.313
  0
ARC
  5
8EE
  8
0
  6
CONTINUOUS
 62
     3
 10
-17420.1
 20
110.9
 30
0.0
 40
162.5
 50
165.728
 51
194.264
  0
LINE
  5
8EF
  8
0
  6
CONTINUOUS
 62
     3
 10
-17530.5
 20
203.5
 30
0.0
 11
-17473.4
 21
170.5
 31
0.0
  0
LINE
  5
8F0
  8
0
  6
CONTINUOUS
 62
     3
 10
-17395.1
 20
252.8
 30
0.0
 11
-17395.1
 21
188.8
 31
0.0
  0
LINE
  5
8F1
  8
0
  6
CONTINUOUS
 62
     3
 10
-17445.1
 20
186.9
 30
0.0
 11
-17445.1
 21
252.8
 31
0.0
  0
LINE
  5
8F2
  8
0
  6
CONTINUOUS
 62
     3
 10
-17445.0
 20
326.9
 30
0.0
 11
-17395.1
 21
326.9
 31
0.0
  0
LINE
  5
8F3
  8
0
  6
CONTINUOUS
 62
     3
 10
-17498.4
 20
127.3
 30
0.0
 11
-17555.5
 21
160.3
 31
0.0
  0
LINE
  5
8F4
  8
0
  6
CONTINUOUS
 62
     3
 10
-17476.8
 20
49.3
 30
0.0
 11
-17530.5
 21
18.3
 31
0.0
  0
LINE
  5
8F5
  8
0
  6
CONTINUOUS
 62
     3
 10
-17445.0
 20
45.9
 30
0.0
 11
-17395.1
 21
45.9
 31
0.0
  0
LINE
  5
8F6
  8
0
  6
CONTINUOUS
 62
     3
 10
-17445.1
 20
-31.1
 30
0.0
 11
-17445.1
 21
-5.8
 31
0.0
  0
LINE
  5
8F7
  8
0
  6
CONTINUOUS
 62
     3
 10
-17489.1
 20
70.5
 30
0.0
 11
-17394.0
 21
-94.3
 31
0.0
  0
LINE
  5
8F8
  8
0
  6
CONTINUOUS
 62
     3
 10
-17555.5
 20
61.6
 30
0.0
 11
-17498.3
 21
94.6
 31
0.0
  0
LINE
  5
8F9
  8
0
  6
CONTINUOUS
 62
     3
 10
-17395.1
 20
326.9
 30
0.0
 11
-17395.1
 21
45.9
 31
0.0
  0
LINE
  5
8FA
  8
0
  6
CONTINUOUS
 62
     3
 10
-17445.1
 20
326.9
 30
0.0
 11
-17445.1
 21
45.9
 31
0.0
  0
LINE
  5
8FB
  8
0
  6
CONTINUOUS
 62
     3
 10
-17320.0
 20
-534.1
 30
0.0
 11
-17060.1
 21
78.9
 31
0.0
  0
ARC
  5
8FC
  8
0
  6
CONTINUOUS
 62
     3
 10
-17317.1
 20
216.5
 30
0.0
 40
15.0001
 50
300.009
 51
45.7082
  0
ARC
  5
8FD
  8
0
  6
CONTINUOUS
 62
     3
 10
-17277.1
 20
147.2
 30
0.0
 40
15.0
 50
14.2599
 51
120.016
  0
ARC
  5
8FE
  8
0
  6
CONTINUOUS
 62
     3
 10
-17420.1
 20
110.9
 30
0.0
 40
162.5
 50
11.6256
 51
14.2632
  0
LINE
  5
8FF
  8
0
  6
CONTINUOUS
 62
     3
 10
-17284.6
 20
160.2
 30
0.0
 11
-17294.5
 21
154.5
 31
0.0
  0
LINE
  5
900
  8
0
  6
CONTINUOUS
 62
     3
 10
-3505.1
 20
-527.4
 30
0.0
 11
-2877.0
 21
-768.2
 31
0.0
  0
LINE
  5
901
  8
0
  6
CONTINUOUS
 62
     3
 10
-9034.4
 20
116.0
 30
0.0
 11
51.0
 21
116.0
 31
0.0
  0
LINE
  5
902
  8
0
  6
CONTINUOUS
 62
     3
 10
-9304.0
 20
-519.1
 30
0.0
 11
-253.9
 21
-519.1
 31
0.0
  0
LINE
  5
903
  8
0
  6
CONTINUOUS
 62
     3
 10
-8440.0
 20
50.0
 30
0.0
 11
-7660.0
 21
50.0
 31
0.0
  0
LINE
  5
904
  8
0
  6
CONTINUOUS
 62
     3
 10
-9323.6
 20
-565.1
 30
0.0
 11
-9034.1
 21
116.7
 31
0.0
  0
LINE
  5
905
  8
0
  6
CONTINUOUS
 62
     3
 10
-9550.1
 20
-540.1
 30
0.0
 11
-9525.1
 21
-565.1
 31
0.0
  0
LINE
  5
906
  8
0
  6
CONTINUOUS
 62
     3
 10
-9525.1
 20
-565.1
 30
0.0
 11
-9323.6
 21
-565.1
 31
0.0
  0
LINE
  5
907
  8
0
  6
CONTINUOUS
 62
     3
 10
-9385.7
 20
229.7
 30
0.0
 11
-9188.1
 21
227.3
 31
0.0
  0
LINE
  5
908
  8
0
  6
CONTINUOUS
 62
     3
 10
-9277.1
 20
132.9
 30
0.0
 11
-9147.1
 21
270.9
 31
0.0
  0
LINE
  5
909
  8
0
  6
CONTINUOUS
 62
     3
 10
-9550.1
 20
-510.1
 30
0.0
 11
-9277.1
 21
132.9
 31
0.0
  0
LINE
  5
90A
  8
0
  6
CONTINUOUS
 62
     3
 10
-9550.1
 20
-510.1
 30
0.0
 11
-9550.1
 21
-540.1
 31
0.0
  0
LINE
  5
90B
  8
0
  6
CONTINUOUS
 62
     3
 10
-9385.7
 20
229.7
 30
0.0
 11
-9386.2
 21
186.7
 31
0.0
  0
LINE
  5
90C
  8
0
  6
CONTINUOUS
 62
     3
 10
-9386.2
 20
186.7
 30
0.0
 11
-9228.2
 21
184.8
 31
0.0
  0
LINE
  5
90D
  8
0
  6
CONTINUOUS
 62
     3
 10
-9026.7
 20
185.8
 30
0.0
 11
-8956.2
 21
185.0
 31
0.0
  0
LINE
  5
90E
  8
0
  6
CONTINUOUS
 62
     3
 10
-9022.8
 20
221.8
 30
0.0
 11
-8955.8
 21
221.0
 31
0.0
  0
LINE
  5
90F
  8
0
  6
CONTINUOUS
 62
     3
 10
-8955.8
 20
221.0
 30
0.0
 11
-8956.2
 21
185.0
 31
0.0
  0
LINE
  5
910
  8
0
  6
CONTINUOUS
 62
     3
 10
-9019.1
 20
256.9
 30
0.0
 11
-9034.1
 21
116.7
 31
0.0
  0
LINE
  5
911
  8
0
  6
CONTINUOUS
 62
     3
 10
-9147.1
 20
270.9
 30
0.0
 11
-9019.1
 21
256.9
 31
0.0
  0
LINE
  5
912
  8
0
  6
CONTINUOUS
 62
     3
 10
-8440.0
 20
50.0
 30
0.0
 11
-8500.0
 21
110.0
 31
0.0
  0
LINE
  5
913
  8
0
  6
CONTINUOUS
 62
     3
 10
-7660.0
 20
50.0
 30
0.0
 11
-7594.0
 21
116.0
 31
0.0
  0
LINE
  5
914
  8
0
  6
CONTINUOUS
 62
     3
 10
-3501.9
 20
-519.0
 30
0.0
 11
-3505.1
 21
-527.4
 31
0.0
  0
POINT
  5
915
  8
ô_
 62
     1
 10
0.0
 20
0.0
 30
0.0
  0
LINE
  5
916
  8
0
  6
CONTINUOUS
 62
     3
 10
116.0
 20
-155.0
 30
0.0
 11
-253.9
 21
-519.1
 31
0.0
  0
POINT
  5
917
  8
ô_
 62
     1
 10
-2758.0
 20
-674.1
 30
0.0
  0
ARC
  5
918
  8
0
  6
CONTINUOUS
 62
     3
 10
-2574.5
 20
-589.1
 30
0.0
 40
60.0
 50
89.9963
 51
165.067
  0
LINE
  5
919
  8
0
  6
CONTINUOUS
 62
     3
 10
-2883.0
 20
-519.1
 30
0.0
 11
-2883.0
 21
-750.2
 31
0.0
  0
LINE
  5
91A
  8
0
  6
CONTINUOUS
 62
     3
 10
-2697.9
 20
-819.0
 30
0.0
 11
-2632.5
 21
-573.6
 31
0.0
  0
CIRCLE
  5
91B
  8
0
  6
CONTINUOUS
 62
     3
 10
-2758.0
 20
-674.1
 30
0.0
 40
49.9999
  0
ARC
  5
91C
  8
0
  6
CONTINUOUS
 62
     3
 10
-2853.0
 20
-750.2
 30
0.0
 40
30.0
 50
180.0
 51
256.228
  0
LINE
  5
91D
  8
0
  6
CONTINUOUS
 62
     3
 10
-2697.9
 20
-819.0
 30
0.0
 11
-2860.1
 21
-779.3
 31
0.0
  0
LINE
  5
91E
  8
0
  6
CONTINUOUS
 62
     3
 10
-2568.0
 20
-519.1
 30
0.0
 11
-2568.0
 21
-529.1
 31
0.0
  0
LINE
  5
91F
  8
0
  6
CONTINUOUS
 62
     3
 10
-2574.5
 20
-529.1
 30
0.0
 11
-2568.0
 21
-529.1
 31
0.0
  0
LINE
  5
920
  8
0
  6
CONTINUOUS
 62
     3
 10
116.0
 20
51.0
 30
0.0
 11
116.0
 21
-155.0
 31
0.0
  0
CIRCLE
  5
921
  8
0
  6
CONTINUOUS
 62
     3
 10
0.0
 20
0.0
 30
0.0
 40
76.2
  0
CIRCLE
  5
922
  8
0
  6
CONTINUOUS
 62
     3
 10
0.0
 20
0.0
 30
0.0
 40
57.5
  0
LINE
  5
923
  8
0
  6
CONTINUOUS
 62
     3
 10
51.0
 20
116.0
 30
0.0
 11
116.0
 21
51.0
 31
0.0
  0
ENDBLK
  5
924
  8
0
  0
BLOCK
  8
0
  2
B100144
 70
     0
 10
0.0
 20
0.0
 30
0.0
  3
B100144
  1

  0
POINT
  5
959
  8
ô_
 62
     1
 10
-0.01
 20
-999.94
 30
0.0
  0
POINT
  5
95A
  8
ô_
 62
     1
 10
0.0
 20
0.0
 30
0.0
  0
LINE
  5
95B
  8
0
  6
CONTINUOUS
 62
     3
 10
-1620.03
 20
128.95
 30
0.0
 11
-152.05
 21
128.96
 31
0.0
  0
LINE
  5
95C
  8
0
  6
CONTINUOUS
 62
     3
 10
-628.04
 20
-120.01
 30
0.0
 11
-0.03
 21
-120.0
 31
0.0
  0
LINE
  5
95D
  8
0
  6
CONTINUOUS
 62
     3
 10
-826.33
 20
-1476.25
 30
0.0
 11
-349.07
 21
-1476.29
 31
0.0
  0
LINE
  5
95E
  8
0
  6
CONTINUOUS
 62
     3
 10
-628.05
 20
-1032.66
 30
0.0
 11
-300.726555
 21
-880.029999
 31
0.0
  0
POINT
  5
95F
  8
ô_
 62
     1
 10
-850.01
 20
-1300.0
 30
0.0
  0
ARC
  5
960
  8
0
  6
CONTINUOUS
 62
     3
 10
-799.85
 20
-886.02
 30
0.0
 40
90.0005
 50
206.565
 51
270.0
  0
LINE
  5
961
  8
0
  6
CONTINUOUS
 62
     3
 10
-941.75
 20
-1405.0
 30
0.0
 11
-1627.01
 21
-34.45
 31
0.0
  0
LINE
  5
962
  8
0
  6
CONTINUOUS
 62
     3
 10
-628.03
 20
-1019.4
 30
0.0
 11
-628.04
 21
128.96
 31
0.0
  0
ARC
  5
963
  8
0
  6
CONTINUOUS
 62
     3
 10
-826.34
 20
-1347.27
 30
0.0
 40
129.0
 50
206.565
 51
270.0
  0
LINE
  5
964
  8
0
  6
CONTINUOUS
 62
     3
 10
-628.04
 20
-1476.27
 30
0.0
 11
-628.03
 21
-1019.4
 31
0.0
  0
LINE
  5
965
  8
0
  6
CONTINUOUS
 62
     3
 10
-799.82
 20
-975.98
 30
0.0
 11
-628.02
 21
-975.99
 31
0.0
  0
CIRCLE
  5
966
  8
0
  6
CONTINUOUS
 62
     3
 10
-850.01
 20
-1300.0
 30
0.0
 40
76.1999
  0
POINT
  5
967
  8
ô_
 62
     1
 10
-1500.0
 20
-0.01
 30
0.0
  0
CIRCLE
  5
968
  8
0
  6
CONTINUOUS
 62
     3
 10
-1500.03
 20
-0.03
 30
0.0
 40
76.1999
  0
LINE
  5
969
  8
0
  6
CONTINUOUS
 62
     3
 10
-1120.52
 20
-445.92
 30
0.0
 11
-880.35
 21
-926.26
 31
0.0
  0
LINE
  5
96A
  8
0
  6
CONTINUOUS
 62
     3
 10
-1040.05
 20
-130.04
 30
0.0
 11
-628.05
 21
-130.04
 31
0.0
  0
ARC
  5
96B
  8
0
  6
CONTINUOUS
 62
     3
 10
-1040.02
 20
-220.01
 30
0.0
 40
90.0001
 50
90.0
 51
180.0
  0
ARC
  5
96C
  8
0
  6
CONTINUOUS
 62
     3
 10
-1040.01
 20
-405.68
 30
0.0
 40
90.0002
 50
180.001
 51
206.565
  0
LINE
  5
96D
  8
0
  6
CONTINUOUS
 62
     3
 10
-1130.01
 20
-218.97
 30
0.0
 11
-1130.03
 21
-405.67
 31
0.0
  0
ARC
  5
96E
  8
0
  6
CONTINUOUS
 62
     3
 10
-1610.01
 20
-25.9
 30
0.0
 40
19.0001
 50
180.0
 51
206.565
  0
LINE
  5
96F
  8
0
  6
CONTINUOUS
 62
     3
 10
-1629.01
 20
138.99
 30
0.0
 11
-1629.01
 21
-25.91
 31
0.0
  0
LINE
  5
970
  8
0
  6
CONTINUOUS
 62
     3
 10
-1629.01
 20
138.99
 30
0.0
 11
-1620.01
 21
138.99
 31
0.0
  0
LINE
  5
971
  8
0
  6
CONTINUOUS
 62
     3
 10
-1620.03
 20
128.95
 30
0.0
 11
-1620.01
 21
138.99
 31
0.0
  0
LINE
  5
972
  8
0
  6
CONTINUOUS
 62
     3
 10
-42.46
 20
-930.01
 30
0.0
 11
-42.47
 21
-957.6
 31
0.0
  0
LINE
  5
973
  8
0
  6
CONTINUOUS
 62
     3
 10
-286.01
 20
-898.97
 30
0.0
 11
-286.04
 21
-1101.03
 31
0.0
  0
LINE
  5
974
  8
0
  6
CONTINUOUS
 62
     3
 10
-332.59
 20
-1466.75
 30
0.0
 11
-132.38
 21
-1119.98
 31
0.0
  0
ARC
  5
975
  8
0
  6
CONTINUOUS
 62
     3
 10
-349.05
 20
-1457.25
 30
0.0
 40
18.9999
 50
270.002
 51
330.0
  0
ARC
  5
976
  8
0
  6
CONTINUOUS
 62
     3
 10
19.96
 20
-1080.01
 30
0.0
 40
19.9998
 50
0.000014
 51
90.0003
  0
ARC
  5
977
  8
0
  6
CONTINUOUS
 62
     3
 10
-0.03
 20
-1000.0
 30
0.0
 40
60.0001
 50
135.0
 51
270.0
  0
ARC
  5
978
  8
0
  6
CONTINUOUS
 62
     3
 10
19.97
 20
-1100.0
 30
0.0
 40
19.9998
 50
270.0
 51
0.000014
  0
ARC
  5
979
  8
0
  6
CONTINUOUS
 62
     3
 10
-267.05
 20
-1101.02
 30
0.0
 40
19.0001
 50
180.0
 51
270.001
  0
LINE
  5
97A
  8
0
  6
CONTINUOUS
 62
     3
 10
-0.05
 20
-1060.03
 30
0.0
 11
19.95
 21
-1060.03
 31
0.0
  0
LINE
  5
97B
  8
0
  6
CONTINUOUS
 62
     3
 10
-266.01
 20
-1119.98
 30
0.0
 11
19.98
 21
-1119.98
 31
0.0
  0
LINE
  5
97C
  8
0
  6
CONTINUOUS
 62
     3
 10
39.96
 20
-1080.01
 30
0.0
 11
39.97
 21
-1100.0
 31
0.0
  0
CIRCLE
  5
97D
  8
0
  6
CONTINUOUS
 62
     3
 10
-0.03
 20
-0.03
 30
0.0
 40
50.0
  0
ARC
  5
97E
  8
0
  6
CONTINUOUS
 62
     3
 10
-0.03
 20
-0.03
 30
0.0
 40
120.0
 50
270.0
 51
90.0
  0
LINE
  5
97F
  8
0
  6
CONTINUOUS
 62
     3
 10
-140.04
 20
119.95
 30
0.0
 11
-140.03
 21
-120.0
 31
0.0
  0
LINE
  5
980
  8
0
  6
CONTINUOUS
 62
     3
 10
-140.03
 20
-120.0
 30
0.0
 11
-140.04
 21
-880.02
 31
0.0
  0
ARC
  5
981
  8
0
  6
CONTINUOUS
 62
     3
 10
-267.01
 20
-898.98
 30
0.0
 40
18.9997
 50
90.0006
 51
180.0
  0
LINE
  5
982
  8
0
  6
CONTINUOUS
 62
     3
 10
-52.31
 20
-879.98
 30
0.0
 11
-42.46
 21
-930.01
 31
0.0
  0
LINE
  5
983
  8
0
  6
CONTINUOUS
 62
     3
 10
-300.726555
 20
-880.029999
 30
0.0
 11
-52.31
 21
-879.98
 31
0.0
  0
LINE
  5
984
  8
0
  6
CONTINUOUS
 62
     3
 10
-152.03
 20
139.0
 30
0.0
 11
-152.05
 21
119.96
 31
0.0
  0
LINE
  5
985
  8
0
  6
CONTINUOUS
 62
     3
 10
-152.03
 20
139.0
 30
0.0
 11
-140.02
 21
138.99
 31
0.0
  0
LINE
  5
986
  8
0
  6
CONTINUOUS
 62
     3
 10
-152.02
 20
138.99
 30
0.0
 11
-140.02
 21
138.99
 31
0.0
  0
LINE
  5
987
  8
0
  6
CONTINUOUS
 62
     3
 10
-140.04
 20
119.95
 30
0.0
 11
-0.05
 21
119.95
 31
0.0
  0
LINE
  5
988
  8
0
  6
CONTINUOUS
 62
     3
 10
-140.03
 20
139.0
 30
0.0
 11
-140.04
 21
119.95
 31
0.0
  0
ENDBLK
  5
989
  8
0
  0
BLOCK
  8
0
  2
B100145
 70
     0
 10
0.0
 20
0.0
 30
0.0
  3
B100145
  1

  0
LINE
  5
9A4
  8
0
  6
CONTINUOUS
 62
     3
 10
-1718.9
 20
-149.21
 30
0.0
 11
-91.407838
 21
-149.220047
 31
0.0
  0
LINE
  5
9A5
  8
0
  6
CONTINUOUS
 62
     3
 10
-91.342624
 20
149.279973
 30
0.0
 11
-1718.9
 21
149.27
 31
0.0
  0
POINT
  5
9A6
  8
ô_
 62
     1
 10
-2030.0
 20
0.01
 30
0.0
  0
LINE
  5
9A7
  8
0
  6
CONTINUOUS
 62
     3
 10
-1859.0
 20
104.03
 30
0.0
 11
-1909.9
 21
104.04
 31
0.0
  0
LINE
  5
9A8
  8
0
  6
CONTINUOUS
 62
     3
 10
-1859.0
 20
-103.946113
 30
0.0
 11
-1910.0
 21
-103.98
 31
0.0
  0
CIRCLE
  5
9A9
  8
0
  6
CONTINUOUS
 62
     3
 10
-2030.0
 20
0.01
 30
0.0
 40
100.0
  0
LINE
  5
9AA
  8
0
  6
CONTINUOUS
 62
     3
 10
-2030.0
 20
100.01
 30
0.0
 11
-1909.9
 21
100.01
 31
0.0
  0
LINE
  5
9AB
  8
0
  6
CONTINUOUS
 62
     3
 10
-2030.0
 20
-99.99
 30
0.0
 11
-1910.0
 21
-99.99
 31
0.0
  0
LINE
  5
9AC
  8
0
  6
CONTINUOUS
 62
     3
 10
-1909.9
 20
104.04
 30
0.0
 11
-1910.0
 21
-103.98
 31
0.0
  0
LINE
  5
9AD
  8
0
  6
CONTINUOUS
 62
     3
 10
-1856.5
 20
127.54
 30
0.0
 11
-1859.0
 21
125.03
 31
0.0
  0
LINE
  5
9AE
  8
0
  6
CONTINUOUS
 62
     3
 10
-1846.5
 20
162.51
 30
0.0
 11
-1849.0
 21
160.01
 31
0.0
  0
LINE
  5
9AF
  8
0
  6
CONTINUOUS
 62
     3
 10
-1849.0
 20
127.52
 30
0.0
 11
-1856.4
 21
127.53
 31
0.0
  0
LINE
  5
9B0
  8
0
  6
CONTINUOUS
 62
     3
 10
-1718.899222
 20
162.52
 30
0.0
 11
-1846.5
 21
162.52
 31
0.0
  0
LINE
  5
9B1
  8
0
  6
CONTINUOUS
 62
     3
 10
-1859.0
 20
-124.98
 30
0.0
 11
-1856.5
 21
-127.47
 31
0.0
  0
LINE
  5
9B2
  8
0
  6
CONTINUOUS
 62
     3
 10
-1856.5
 20
-127.46
 30
0.0
 11
-1849.0
 21
-127.46
 31
0.0
  0
LINE
  5
9B3
  8
0
  6
CONTINUOUS
 62
     3
 10
-1849.0
 20
-159.97
 30
0.0
 11
-1846.5
 21
-162.49
 31
0.0
  0
LINE
  5
9B4
  8
0
  6
CONTINUOUS
 62
     3
 10
-1846.5
 20
-162.47
 30
0.0
 11
-1719.000781
 21
-162.47
 31
0.0
  0
LINE
  5
9B5
  8
0
  6
CONTINUOUS
 62
     3
 10
-1718.899222
 20
162.52
 30
0.0
 11
-1719.000781
 21
-162.47
 31
0.0
  0
LINE
  5
9B6
  8
0
  6
CONTINUOUS
 62
     3
 10
-1849.0
 20
160.02
 30
0.0
 11
-1849.0
 21
-159.95
 31
0.0
  0
LINE
  5
9B7
  8
0
  6
CONTINUOUS
 62
     3
 10
-1859.0
 20
125.03
 30
0.0
 11
-1859.0
 21
-124.97
 31
0.0
  0
POINT
  5
9B8
  8
ô_
 62
     1
 10
0.0
 20
0.0
 30
0.0
  0
CIRCLE
  5
9B9
  8
0
  6
CONTINUOUS
 62
     3
 10
0.0
 20
0.01
 30
0.0
 40
175.0
  0
ENDBLK
  5
9BA
  8
0
  0
BLOCK
  8
0
  2
B160114
 70
     0
 10
0.0
 20
0.0
 30
0.0
  3
B160114
  1

  0
LINE
  5
600
  8
0
  6
CONTINUOUS
 62
     6
 10
350.1
 20
-103.45
 30
0.0
 11
84.1
 21
-655.32
 31
0.0
  0
LINE
  5
601
  8
0
  6
CONTINUOUS
 62
     6
 10
-350.0
 20
-103.45
 30
0.0
 11
-84.0
 21
-655.32
 31
0.0
  0
ARC
  5
602
  8
0
  6
CONTINUOUS
 62
     6
 10
-23.7
 20
-847.44
 30
0.0
 40
116.285
 50
184.1
 51
204.6
  0
ARC
  5
603
  8
0
  6
CONTINUOUS
 62
     6
 10
30.0
 20
-836.94
 30
0.0
 40
170.345
 50
200.3
 51
61.8
  0
ARC
  5
604
  8
0
  6
CONTINUOUS
 62
     6
 10
-0.3
 20
-837.72
 30
0.0
 40
70.3936
 50
186.2
 51
55.2
  0
TEXT
  5
605
  8
0
  6
CONTINUOUS
 62
     6
 10
42.2
 20
-945.62
 30
0.0
 40
30.0
  1
25t
 41
0.75
  0
LINE
  5
606
  8
0
  6
CONTINUOUS
 62
     6
 10
84.1
 20
-655.32
 30
0.0
 11
0.0
 21
-655.32
 31
0.0
  0
LINE
  5
607
  8
0
  6
CONTINUOUS
 62
     6
 10
-110.7
 20
-544.5
 30
0.0
 11
100.2
 21
-544.5
 31
0.0
  0
ARC
  5
608
  8
0
  6
CONTINUOUS
 62
     6
 10
-133.7
 20
-780.55
 30
0.0
 40
23.3349
 50
57.2
 51
191.6
  0
ARC
  5
609
  8
0
  6
CONTINUOUS
 62
     6
 10
115.9
 20
-626.54
 30
0.0
 40
160.233
 50
190.4
 51
209.6
  0
ARC
  5
60A
  8
0
  6
CONTINUOUS
 62
     6
 10
331.4
 20
-467.47
 30
0.0
 40
427.417
 50
213.9
 51
227.0
  0
ARC
  5
60B
  8
0
  6
CONTINUOUS
 62
     6
 10
-216.6
 20
-875.83
 30
0.0
 40
149.343
 50
11.8
 51
50.2
  0
ARC
  5
60C
  8
0
  6
CONTINUOUS
 62
     6
 10
-280.8
 20
-852.11
 30
0.0
 40
141.176
 50
358.4
 51
28.4
  0
LINE
  5
60D
  8
0
  6
CONTINUOUS
 62
     6
 10
-84.0
 20
-655.32
 30
0.0
 11
0.0
 21
-655.32
 31
0.0
  0
ARC
  5
60E
  8
0
  6
CONTINUOUS
 62
     6
 10
140.8
 20
-584.92
 30
0.0
 40
106.174
 50
221.6
 51
253.6
  0
LINE
  5
60F
  8
0
  6
CONTINUOUS
 62
     6
 10
350.1
 20
37.73
 30
0.0
 11
179.3
 21
325.14
 31
0.0
  0
LINE
  5
610
  8
0
  6
CONTINUOUS
 62
     6
 10
-350.0
 20
37.73
 30
0.0
 11
-179.2
 21
325.14
 31
0.0
  0
LINE
  5
611
  8
0
  6
CONTINUOUS
 62
     6
 10
-350.0
 20
37.73
 30
0.0
 11
-350.0
 21
-103.45
 31
0.0
  0
POINT
  5
612
  8
ô_
 10
0.0
 20
0.0
 30
0.0
  0
LINE
  5
613
  8
0
  6
CONTINUOUS
 62
     6
 10
350.1
 20
37.73
 30
0.0
 11
350.1
 21
-103.45
 31
0.0
  0
LINE
  5
614
  8
0
  6
CONTINUOUS
 62
     6
 10
179.3
 20
325.14
 30
0.0
 11
-179.2
 21
325.14
 31
0.0
  0
ENDBLK
  5
615
  8
0
  0
BLOCK
  8
0
  2
B090115
 70
     0
 10
0.0
 20
0.0
 30
0.0
  3
B090115
  1

  0
LINE
  5
633
  8
0
  6
CONTINUOUS
 62
     6
 10
160.0
 20
-429.99
 30
0.0
 11
200.0
 21
-379.99
 31
0.0
  0
LINE
  5
634
  8
0
  6
CONTINUOUS
 62
     6
 10
-160.0
 20
-430.0
 30
0.0
 11
-200.0
 21
-380.0
 31
0.0
  0
ARC
  5
635
  8
0
  6
CONTINUOUS
 62
     6
 10
16.6
 20
-675.88
 30
0.0
 40
155.0
 50
188.363
 51
269.251
  0
ARC
  5
636
  8
0
  6
CONTINUOUS
 62
     6
 10
0.0
 20
-654.88
 30
0.0
 40
62.4997
 50
202.501
 51
267.189
  0
ARC
  5
637
  8
0
  6
CONTINUOUS
 62
     6
 10
134.9
 20
-446.87
 30
0.0
 40
180.0
 50
174.622
 51
225.033
  0
LINE
  5
638
  8
0
  6
CONTINUOUS
 62
     6
 10
-160.0
 20
-430.0
 30
0.0
 11
160.0
 21
-430.0
 31
0.0
  0
ARC
  5
639
  8
0
  6
CONTINUOUS
 62
     6
 10
-399.0
 20
-736.96
 30
0.0
 40
264.999
 50
8.36312
 51
28.1901
  0
ARC
  5
63A
  8
0
  6
CONTINUOUS
 62
     6
 10
-302.5
 20
-780.21
 30
0.0
 40
265.0
 50
22.5007
 51
45.0331
  0
ARC
  5
63B
  8
0
  6
CONTINUOUS
 62
     6
 10
-143.3
 20
-599.96
 30
0.0
 40
25.0
 50
37.0589
 51
208.19
  0
LINE
  5
63C
  8
0
  6
CONTINUOUS
 62
     6
 10
-125.7
 20
-582.28
 30
0.0
 11
-115.3
 21
-592.73
 31
0.0
  0
ARC
  5
63D
  8
0
  6
CONTINUOUS
 62
     6
 10
0.0
 20
-654.88
 30
0.0
 40
62.4999
 50
267.067
 51
0.032945
  0
ARC
  5
63E
  8
0
  6
CONTINUOUS
 62
     6
 10
16.6
 20
-659.37
 30
0.0
 40
171.0
 50
283.481
 51
0.032945
  0
ARC
  5
63F
  8
0
  6
CONTINUOUS
 62
     6
 10
16.6
 20
-675.88
 30
0.0
 40
155.0
 50
269.768
 51
284.901
  0
ARC
  5
640
  8
0
  6
CONTINUOUS
 62
     6
 10
0.0
 20
-654.88
 30
0.0
 40
62.5
 50
0.032945
 51
45.0336
  0
ARC
  5
641
  8
0
  6
CONTINUOUS
 62
     6
 10
16.6
 20
-659.37
 30
0.0
 40
170.999
 50
0.03306
 51
67.0974
  0
ARC
  5
642
  8
0
  6
CONTINUOUS
 62
     6
 10
107.9
 20
-443.95
 30
0.0
 40
62.9994
 50
167.204
 51
247.015
  0
LINE
  5
643
  8
0
  6
CONTINUOUS
 62
     6
 10
7.8
 20
-574.21
 30
0.0
 11
44.2
 21
-610.66
 31
0.0
  0
LINE
  5
644
  8
0
  6
CONTINUOUS
 62
     6
 10
-200.0
 20
271.69
 30
0.0
 11
-200.0
 21
-380.0
 31
0.0
  0
LINE
  5
645
  8
0
  6
CONTINUOUS
 62
     6
 10
200.0
 20
271.69
 30
0.0
 11
200.0
 21
-380.0
 31
0.0
  0
LINE
  5
646
  8
0
  6
CONTINUOUS
 62
     6
 10
-200.0
 20
-77.0
 30
0.0
 11
200.0
 21
-77.0
 31
0.0
  0
POINT
  5
647
  8
ô_
 10
0.0
 20
0.0
 30
0.0
  0
LINE
  5
648
  8
0
  6
CONTINUOUS
 62
     6
 10
-140.5
 20
373.0
 30
0.0
 11
140.6
 21
373.0
 31
0.0
  0
LINE
  5
649
  8
0
  6
CONTINUOUS
 62
     6
 10
-200.0
 20
271.69
 30
0.0
 11
-140.5
 21
373.0
 31
0.0
  0
LINE
  5
64A
  8
0
  6
CONTINUOUS
 62
     6
 10
140.6
 20
373.0
 30
0.0
 11
200.0
 21
271.68
 31
0.0
  0
ENDBLK
  5
64B
  8
0
  0
ENDSEC
  0
SECTION
  2
ENTITIES
  0
LINE
  5
41
  8
0
  6
CONTINUOUS
 62
     7
 10
29420.2
 20
4817.27
 30
0.0
 11
41420.2
 21
4817.27
 31
0.0
  0
LINE
  5
42
  8
0
  6
CONTINUOUS
 62
     7
 10
29420.2
 20
5617.27
 30
0.0
 11
41420.2
 21
5617.27
 31
0.0
  0
LINE
  5
43
  8
0
  6
CONTINUOUS
 62
     7
 10
29420.2
 20
6417.27
 30
0.0
 11
41420.2
 21
6417.27
 31
0.0
  0
LINE
  5
44
  8
0
  6
CONTINUOUS
 62
     7
 10
29420.2
 20
7217.27
 30
0.0
 11
41420.2
 21
7217.27
 31
0.0
  0
LINE
  5
45
  8
0
  6
CONTINUOUS
 62
     7
 10
29420.2
 20
7217.27
 30
0.0
 11
29420.2
 21
4817.27
 31
0.0
  0
LINE
  5
46
  8
0
  6
CONTINUOUS
 62
     7
 10
33841.7
 20
7217.27
 30
0.0
 11
33841.7
 21
4817.27
 31
0.0
  0
LINE
  5
47
  8
0
  6
CONTINUOUS
 62
     7
 10
41420.2
 20
7217.27
 30
0.0
 11
41420.2
 21
4817.27
 31
0.0
  0
LINE
  5
48
  8
0
  6
CONTINUOUS
 62
     3
 10
5353.49
 20
14584.3
 30
0.0
 11
12979.2
 21
14584.3
 31
0.0
  0
LINE
  5
49
  8
0
  6
CONTINUOUS
 62
     3
 10
5287.34
 20
14097.3
 30
0.0
 11
13084.3
 21
14097.3
 31
0.0
  0
LINE
  5
4A
  8
0
  6
CONTINUOUS
 62
     3
 10
5000.57
 20
13629.2
 30
0.0
 11
5271.42
 21
14098.3
 31
0.0
  0
LINE
  5
4B
  8
0
  6
CONTINUOUS
 62
     3
 10
4749.43
 20
13774.2
 30
0.0
 11
5020.27
 21
14243.3
 31
0.0
  0
LINE
  5
4C
  8
0
  6
CONTINUOUS
 62
     3
 10
5379.47
 20
13900.3
 30
0.0
 11
5246.15
 21
14054.5
 31
0.0
  0
LINE
  5
4D
  8
0
  6
CONTINUOUS
 62
     3
 10
4966.82
 20
13609.7
 30
0.0
 11
5000.56
 21
13629.2
 31
0.0
  0
LINE
  5
4E
  8
0
  6
CONTINUOUS
 62
     3
 10
4749.48
 20
13735.1
 30
0.0
 11
4749.48
 21
13774.3
 31
0.0
  0
LINE
  5
4F
  8
0
  6
CONTINUOUS
 62
     3
 10
5307.39
 20
13831.2
 30
0.0
 11
5184.12
 21
13947.1
 31
0.0
  0
LINE
  5
50
  8
0
  6
CONTINUOUS
 62
     3
 10
5105.75
 20
14775.3
 30
0.0
 11
5349.15
 21
14565.0
 31
0.0
  0
LINE
  5
51
  8
0
  6
CONTINUOUS
 62
     3
 10
4959.34
 20
14665.8
 30
0.0
 11
4959.34
 21
14420.5
 31
0.0
  0
LINE
  5
52
  8
0
  6
CONTINUOUS
 62
     3
 10
5287.82
 20
14292.4
 30
0.0
 11
5353.49
 21
14584.3
 31
0.0
  0
LINE
  5
53
  8
0
  6
CONTINUOUS
 62
     3
 10
5155.94
 20
14412.1
 30
0.0
 11
5020.27
 21
14243.3
 31
0.0
  0
LINE
  5
54
  8
0
  6
CONTINUOUS
 62
     3
 10
5287.34
 20
14059.3
 30
0.0
 11
5334.33
 21
14059.3
 31
0.0
  0
LINE
  5
55
  8
0
  6
CONTINUOUS
 62
     3
 10
5271.42
 20
14310.3
 30
0.0
 11
5271.42
 21
14098.3
 31
0.0
  0
LINE
  5
56
  8
0
  6
CONTINUOUS
 62
     3
 10
5287.34
 20
14288.2
 30
0.0
 11
5287.34
 21
14059.3
 31
0.0
  0
LINE
  5
57
  8
0
  6
CONTINUOUS
 62
     3
 10
5290.88
 20
14306.0
 30
0.0
 11
5197.86
 21
14326.9
 31
0.0
  0
LINE
  5
58
  8
0
  6
CONTINUOUS
 62
     3
 10
5334.33
 20
14059.3
 30
0.0
 11
5334.33
 21
14097.3
 31
0.0
  0
LINE
  5
59
  8
0
  6
CONTINUOUS
 62
     3
 10
5322.04
 20
14444.5
 30
0.0
 11
5170.88
 21
14478.5
 31
0.0
  0
LINE
  5
5A
  8
0
  6
CONTINUOUS
 62
     3
 10
5104.28
 20
14347.9
 30
0.0
 11
4998.37
 21
14371.7
 31
0.0
  0
LINE
  5
5B
  8
0
  6
CONTINUOUS
 62
     3
 10
5152.98
 20
14398.9
 30
0.0
 11
5170.88
 21
14478.5
 31
0.0
  0
LINE
  5
5C
  8
0
  6
CONTINUOUS
 62
     3
 10
5094.33
 20
14957.8
 30
0.0
 11
5094.33
 21
14775.3
 31
0.0
  0
LINE
  5
5D
  8
0
  6
CONTINUOUS
 62
     3
 10
5044.34
 20
14957.8
 30
0.0
 11
5044.34
 21
14772.4
 31
0.0
  0
LINE
  5
5E
  8
0
  6
CONTINUOUS
 62
     3
 10
5069.34
 20
14775.3
 30
0.0
 11
5105.75
 21
14775.3
 31
0.0
  0
LINE
  5
5F
  8
0
  6
CONTINUOUS
 62
     3
 10
21280.4
 20
14036.3
 30
0.0
 11
30330.5
 21
14036.3
 31
0.0
  0
LINE
  5
60
  8
0
  6
CONTINUOUS
 62
     3
 10
21550.0
 20
14671.4
 30
0.0
 11
30635.4
 21
14671.4
 31
0.0
  0
LINE
  5
61
  8
0
  6
CONTINUOUS
 62
     3
 10
13521.4
 20
14627.3
 30
0.0
 11
21281.4
 21
14627.3
 31
0.0
  0
LINE
  5
62
  8
0
  6
CONTINUOUS
 62
     3
 10
13283.4
 20
14066.3
 30
0.0
 11
21043.2
 21
14066.3
 31
0.0
  0
LINE
  5
63
  8
0
  6
CONTINUOUS
 62
     3
 10
13264.4
 20
14021.3
 30
0.0
 11
13524.3
 21
14634.3
 31
0.0
  0
LINE
  5
64
  8
0
  6
CONTINUOUS
 62
     3
 10
13189.3
 20
14742.3
 30
0.0
 11
13524.3
 21
14634.3
 31
0.0
  0
LINE
  5
65
  8
0
  6
CONTINUOUS
 62
     3
 10
13139.3
 20
14882.3
 30
0.0
 11
13139.3
 21
14601.3
 31
0.0
  0
LINE
  5
66
  8
0
  6
CONTINUOUS
 62
     3
 10
13189.3
 20
14882.3
 30
0.0
 11
13189.3
 21
14601.3
 31
0.0
  0
LINE
  5
67
  8
0
  6
CONTINUOUS
 62
     3
 10
13028.9
 20
14617.0
 30
0.0
 11
13086.1
 21
14650.0
 31
0.0
  0
LINE
  5
68
  8
0
  6
CONTINUOUS
 62
     3
 10
13084.3
 20
14109.1
 30
0.0
 11
13195.9
 21
14372.1
 31
0.0
  0
LINE
  5
69
  8
0
  6
CONTINUOUS
 62
     3
 10
13109.3
 20
14021.3
 30
0.0
 11
13264.3
 21
14021.3
 31
0.0
  0
LINE
  5
6A
  8
0
  6
CONTINUOUS
 62
     3
 10
13084.3
 20
14082.3
 30
0.0
 11
13084.3
 21
14059.3
 31
0.0
  0
LINE
  5
6B
  8
0
  6
CONTINUOUS
 62
     3
 10
13084.3
 20
14109.1
 30
0.0
 11
13084.3
 21
14046.3
 31
0.0
  0
LINE
  5
6C
  8
0
  6
CONTINUOUS
 62
     3
 10
13084.3
 20
14046.3
 30
0.0
 11
13109.3
 21
14021.3
 31
0.0
  0
LINE
  5
6D
  8
0
  6
CONTINUOUS
 62
     3
 10
13095.3
 20
14625.9
 30
0.0
 11
13190.4
 21
14461.1
 31
0.0
  0
LINE
  5
6E
  8
0
  6
CONTINUOUS
 62
     3
 10
13139.3
 20
14524.3
 30
0.0
 11
13139.3
 21
14549.6
 31
0.0
  0
LINE
  5
6F
  8
0
  6
CONTINUOUS
 62
     3
 10
13139.4
 20
14601.3
 30
0.0
 11
13189.3
 21
14601.3
 31
0.0
  0
LINE
  5
70
  8
0
  6
CONTINUOUS
 62
     3
 10
13107.6
 20
14604.7
 30
0.0
 11
13053.9
 21
14573.7
 31
0.0
  0
LINE
  5
71
  8
0
  6
CONTINUOUS
 62
     3
 10
13086.0
 20
14682.7
 30
0.0
 11
13028.9
 21
14715.7
 31
0.0
  0
LINE
  5
72
  8
0
  6
CONTINUOUS
 62
     3
 10
13225.7
 20
14730.6
 30
0.0
 11
13274.8
 21
14758.9
 31
0.0
  0
LINE
  5
73
  8
0
  6
CONTINUOUS
 62
     3
 10
13139.4
 20
14882.3
 30
0.0
 11
13189.3
 21
14882.3
 31
0.0
  0
LINE
  5
74
  8
0
  6
CONTINUOUS
 62
     3
 10
13139.3
 20
14742.3
 30
0.0
 11
13139.3
 21
14808.2
 31
0.0
  0
LINE
  5
75
  8
0
  6
CONTINUOUS
 62
     3
 10
13189.3
 20
14808.2
 30
0.0
 11
13189.3
 21
14744.2
 31
0.0
  0
LINE
  5
76
  8
0
  6
CONTINUOUS
 62
     3
 10
13053.9
 20
14758.9
 30
0.0
 11
13111.0
 21
14725.9
 31
0.0
  0
LINE
  5
77
  8
0
  6
CONTINUOUS
 62
     3
 10
13299.8
 20
14715.6
 30
0.0
 11
13289.9
 21
14709.9
 31
0.0
  0
LINE
  5
78
  8
0
  6
CONTINUOUS
 62
     3
 10
21034.3
 20
14015.3
 30
0.0
 11
21059.3
 21
13990.3
 31
0.0
  0
LINE
  5
79
  8
0
  6
CONTINUOUS
 62
     3
 10
21260.8
 20
13990.3
 30
0.0
 11
21550.3
 21
14672.1
 31
0.0
  0
LINE
  5
7A
  8
0
  6
CONTINUOUS
 62
     3
 10
21059.3
 20
13990.3
 30
0.0
 11
21260.8
 21
13990.3
 31
0.0
  0
LINE
  5
7B
  8
0
  6
CONTINUOUS
 62
     3
 10
21437.3
 20
14826.3
 30
0.0
 11
21565.3
 21
14812.3
 31
0.0
  0
LINE
  5
7C
  8
0
  6
CONTINUOUS
 62
     3
 10
21034.3
 20
14045.3
 30
0.0
 11
21307.3
 21
14688.3
 31
0.0
  0
LINE
  5
7E
  8
0
  6
CONTINUOUS
 62
     3
 10
21034.3
 20
14045.3
 30
0.0
 11
21034.3
 21
14015.3
 31
0.0
  0
LINE
  5
7F
  8
0
  6
CONTINUOUS
 62
     3
 10
21307.3
 20
14688.3
 30
0.0
 11
21437.3
 21
14826.3
 31
0.0
  0
LINE
  5
80
  8
0
  6
CONTINUOUS
 62
     3
 10
21565.3
 20
14812.3
 30
0.0
 11
21550.3
 21
14672.1
 31
0.0
  0
LINE
  5
81
  8
0
  6
CONTINUOUS
 62
     3
 10
27079.3
 20
14028.0
 30
0.0
 11
27707.4
 21
13787.2
 31
0.0
  0
LINE
  5
82
  8
0
  6
CONTINUOUS
 62
     3
 10
27701.4
 20
14036.3
 30
0.0
 11
27701.4
 21
13805.2
 31
0.0
  0
LINE
  5
83
  8
0
  6
CONTINUOUS
 62
     3
 10
27886.5
 20
13736.4
 30
0.0
 11
27724.3
 21
13776.1
 31
0.0
  0
LINE
  5
84
  8
0
  6
CONTINUOUS
 62
     3
 10
27886.5
 20
13736.4
 30
0.0
 11
27951.9
 21
13981.8
 31
0.0
  0
LINE
  5
85
  8
0
  6
CONTINUOUS
 62
     3
 10
27082.5
 20
14036.4
 30
0.0
 11
27079.3
 21
14028.0
 31
0.0
  0
LINE
  5
86
  8
0
  6
CONTINUOUS
 62
     3
 10
28009.9
 20
14026.3
 30
0.0
 11
28016.4
 21
14026.3
 31
0.0
  0
LINE
  5
87
  8
0
  6
CONTINUOUS
 62
     3
 10
28016.4
 20
14036.3
 30
0.0
 11
28016.4
 21
14026.3
 31
0.0
  0
LINE
  5
88
  8
0
  6
CONTINUOUS
 62
     3
 10
30700.4
 20
14400.4
 30
0.0
 11
30330.5
 21
14036.3
 31
0.0
  0
LINE
  5
89
  8
0
  6
CONTINUOUS
 62
     3
 10
30635.4
 20
14671.4
 30
0.0
 11
30700.4
 21
14606.4
 31
0.0
  0
LINE
  5
8A
  8
0
  6
CONTINUOUS
 62
     3
 10
30700.4
 20
14606.4
 30
0.0
 11
30700.4
 21
14400.4
 31
0.0
  0
LINE
  5
8B
  8
0
  6
CONTINUOUS
 62
     3
 10
26611.7
 20
19604.2
 30
0.0
 11
30496.5
 21
19604.2
 31
0.0
  0
LINE
  5
8C
  8
0
  6
CONTINUOUS
 62
     3
 10
26849.6
 20
20165.2
 30
0.0
 11
30734.7
 21
20165.2
 31
0.0
  0
LINE
  5
8D
  8
0
  6
CONTINUOUS
 62
     3
 10
22556.7
 20
20122.2
 30
0.0
 11
26307.4
 21
20122.2
 31
0.0
  0
LINE
  5
8E
  8
0
  6
CONTINUOUS
 62
     3
 10
22490.6
 20
19635.2
 30
0.0
 11
26412.6
 21
19635.2
 31
0.0
  0
LINE
  5
8F
  8
0
  6
CONTINUOUS
 62
     3
 10
22582.7
 20
19438.3
 30
0.0
 11
22449.4
 21
19592.5
 31
0.0
  0
LINE
  5
90
  8
0
  6
CONTINUOUS
 62
     3
 10
21952.7
 20
19312.1
 30
0.0
 11
22223.5
 21
19781.3
 31
0.0
  0
LINE
  5
91
  8
0
  6
CONTINUOUS
 62
     3
 10
22203.8
 20
19167.1
 30
0.0
 11
22474.7
 21
19636.3
 31
0.0
  0
LINE
  5
92
  8
0
  6
CONTINUOUS
 62
     3
 10
22170.1
 20
19147.6
 30
0.0
 11
22203.8
 21
19167.1
 31
0.0
  0
LINE
  5
93
  8
0
  6
CONTINUOUS
 62
     3
 10
21952.7
 20
19273.0
 30
0.0
 11
21952.7
 21
19312.2
 31
0.0
  0
LINE
  5
94
  8
0
  6
CONTINUOUS
 62
     3
 10
22510.7
 20
19369.1
 30
0.0
 11
22387.4
 21
19485.1
 31
0.0
  0
LINE
  5
95
  8
0
  6
CONTINUOUS
 62
     3
 10
22309.0
 20
20313.3
 30
0.0
 11
22552.4
 21
20103.0
 31
0.0
  0
LINE
  5
96
  8
0
  6
CONTINUOUS
 62
     3
 10
22162.6
 20
20203.8
 30
0.0
 11
22162.6
 21
19958.4
 31
0.0
  0
LINE
  5
97
  8
0
  6
CONTINUOUS
 62
     3
 10
22359.2
 20
19950.0
 30
0.0
 11
22223.5
 21
19781.3
 31
0.0
  0
LINE
  5
98
  8
0
  6
CONTINUOUS
 62
     3
 10
22490.6
 20
19828.075152
 30
0.0
 11
22556.7
 21
20122.2
 31
0.0
  0
LINE
  5
99
  8
0
  6
CONTINUOUS
 62
     3
 10
22537.6
 20
19597.2
 30
0.0
 11
22537.6
 21
19635.2
 31
0.0
  0
LINE
  5
9A
  8
0
  6
CONTINUOUS
 62
     3
 10
22494.1
 20
19843.9
 30
0.0
 11
22401.1
 21
19864.8
 31
0.0
  0
LINE
  5
9B
  8
0
  6
CONTINUOUS
 62
     3
 10
22490.6
 20
19828.075152
 30
0.0
 11
22490.6
 21
19597.2
 31
0.0
  0
LINE
  5
9C
  8
0
  6
CONTINUOUS
 62
     3
 10
22474.7
 20
19848.3
 30
0.0
 11
22474.7
 21
19636.2
 31
0.0
  0
LINE
  5
9D
  8
0
  6
CONTINUOUS
 62
     3
 10
22490.6
 20
19597.2
 30
0.0
 11
22537.6
 21
19597.2
 31
0.0
  0
LINE
  5
9E
  8
0
  6
CONTINUOUS
 62
     3
 10
22525.3
 20
19982.4
 30
0.0
 11
22374.1
 21
20016.4
 31
0.0
  0
LINE
  5
9F
  8
0
  6
CONTINUOUS
 62
     3
 10
22356.2
 20
19936.8
 30
0.0
 11
22374.1
 21
20016.4
 31
0.0
  0
LINE
  5
A0
  8
0
  6
CONTINUOUS
 62
     3
 10
22307.5
 20
19885.8
 30
0.0
 11
22201.6
 21
19909.7
 31
0.0
  0
LINE
  5
A1
  8
0
  6
CONTINUOUS
 62
     3
 10
22272.6
 20
20313.3
 30
0.0
 11
22309.0
 21
20313.3
 31
0.0
  0
LINE
  5
A2
  8
0
  6
CONTINUOUS
 62
     3
 10
22247.6
 20
20495.8
 30
0.0
 11
22247.6
 21
20310.3
 31
0.0
  0
LINE
  5
A3
  8
0
  6
CONTINUOUS
 62
     3
 10
22297.6
 20
20495.8
 30
0.0
 11
22297.6
 21
20313.3
 31
0.0
  0
LINE
  5
A4
  8
0
  6
CONTINUOUS
 62
     3
 10
26592.6
 20
19559.2
 30
0.0
 11
26852.6
 21
20172.2
 31
0.0
  0
LINE
  5
A5
  8
0
  6
CONTINUOUS
 62
     3
 10
26517.6
 20
20280.2
 30
0.0
 11
26852.6
 21
20172.2
 31
0.0
  0
LINE
  5
A6
  8
0
  6
CONTINUOUS
 62
     3
 10
26467.6
 20
20420.2
 30
0.0
 11
26467.6
 21
20139.2
 31
0.0
  0
LINE
  5
A7
  8
0
  6
CONTINUOUS
 62
     3
 10
26517.6
 20
20420.2
 30
0.0
 11
26517.6
 21
20139.2
 31
0.0
  0
LINE
  5
A8
  8
0
  6
CONTINUOUS
 62
     3
 10
26412.6
 20
19647.0
 30
0.0
 11
26524.1
 21
19910.0
 31
0.0
  0
LINE
  5
A9
  8
0
  6
CONTINUOUS
 62
     3
 10
26412.6
 20
19620.2
 30
0.0
 11
26412.6
 21
19597.2
 31
0.0
  0
LINE
  5
AA
  8
0
  6
CONTINUOUS
 62
     3
 10
26412.6
 20
19647.0
 30
0.0
 11
26412.6
 21
19584.2
 31
0.0
  0
LINE
  5
AB
  8
0
  6
CONTINUOUS
 62
     3
 10
26412.6
 20
19584.2
 30
0.0
 11
26437.6
 21
19559.2
 31
0.0
  0
LINE
  5
AC
  8
0
  6
CONTINUOUS
 62
     3
 10
26437.6
 20
19559.2
 30
0.0
 11
26592.6
 21
19559.2
 31
0.0
  0
LINE
  5
AD
  8
0
  6
CONTINUOUS
 62
     3
 10
26435.9
 20
20142.6
 30
0.0
 11
26382.2
 21
20111.6
 31
0.0
  0
LINE
  5
AE
  8
0
  6
CONTINUOUS
 62
     3
 10
26357.2
 20
20154.9
 30
0.0
 11
26414.3
 21
20187.9
 31
0.0
  0
LINE
  5
AF
  8
0
  6
CONTINUOUS
 62
     3
 10
26423.5
 20
20163.9
 30
0.0
 11
26518.7
 21
19999.1
 31
0.0
  0
LINE
  5
B0
  8
0
  6
CONTINUOUS
 62
     3
 10
26467.6
 20
20062.3
 30
0.0
 11
26467.6
 21
20087.5
 31
0.0
  0
LINE
  5
B1
  8
0
  6
CONTINUOUS
 62
     3
 10
26467.6
 20
20139.2
 30
0.0
 11
26517.6
 21
20139.2
 31
0.0
  0
LINE
  5
B2
  8
0
  6
CONTINUOUS
 62
     3
 10
26382.1
 20
20296.9
 30
0.0
 11
26439.3
 21
20263.9
 31
0.0
  0
LINE
  5
B3
  8
0
  6
CONTINUOUS
 62
     3
 10
26414.3
 20
20220.6
 30
0.0
 11
26357.1
 21
20253.6
 31
0.0
  0
LINE
  5
B4
  8
0
  6
CONTINUOUS
 62
     3
 10
26467.6
 20
20420.2
 30
0.0
 11
26517.6
 21
20420.2
 31
0.0
  0
LINE
  5
B5
  8
0
  6
CONTINUOUS
 62
     3
 10
26467.6
 20
20280.2
 30
0.0
 11
26467.6
 21
20346.2
 31
0.0
  0
LINE
  5
B6
  8
0
  6
CONTINUOUS
 62
     3
 10
26517.6
 20
20346.2
 30
0.0
 11
26517.6
 21
20282.1
 31
0.0
  0
LINE
  5
B7
  8
0
  6
CONTINUOUS
 62
     3
 10
26554.0
 20
20268.5
 30
0.0
 11
26603.1
 21
20296.9
 31
0.0
  0
LINE
  5
B8
  8
0
  6
CONTINUOUS
 62
     3
 10
26628.1
 20
20253.6
 30
0.0
 11
26618.1
 21
20247.9
 31
0.0
  0
LINE
  5
B9
  8
0
  6
CONTINUOUS
 62
     3
 10
31003.3
 20
20209.3
 30
0.0
 11
40088.7
 21
20209.3
 31
0.0
  0
LINE
  5
BA
  8
0
  6
CONTINUOUS
 62
     3
 10
30733.6
 20
19574.3
 30
0.0
 11
39783.7
 21
19574.3
 31
0.0
  0
LINE
  5
BB
  8
0
  6
CONTINUOUS
 62
     3
 10
30487.6
 20
19583.3
 30
0.0
 11
30760.6
 21
20226.3
 31
0.0
  0
LINE
  5
BC
  8
0
  6
CONTINUOUS
 62
     3
 10
30512.6
 20
19528.2
 30
0.0
 11
30714.1
 21
19528.2
 31
0.0
  0
LINE
  5
BD
  8
0
  6
CONTINUOUS
 62
     3
 10
30487.6
 20
19553.2
 30
0.0
 11
30512.6
 21
19528.2
 31
0.0
  0
LINE
  5
BE
  8
0
  6
CONTINUOUS
 62
     3
 10
30487.6
 20
19583.2
 30
0.0
 11
30487.6
 21
19553.2
 31
0.0
  0
LINE
  5
BF
  8
0
  6
CONTINUOUS
 62
     3
 10
30487.6
 20
19589.2
 30
0.0
 11
30487.6
 21
19566.2
 31
0.0
  0
LINE
  5
C0
  8
0
  6
CONTINUOUS
 62
     3
 10
30714.1
 20
19528.3
 30
0.0
 11
31003.6
 21
20210.1
 31
0.0
  0
LINE
  5
C1
  8
0
  6
CONTINUOUS
 62
     3
 10
31018.6
 20
20350.2
 30
0.0
 11
31003.6
 21
20210.0
 31
0.0
  0
LINE
  5
C2
  8
0
  6
CONTINUOUS
 62
     3
 10
30760.6
 20
20226.2
 30
0.0
 11
30890.6
 21
20364.2
 31
0.0
  0
LINE
  5
C3
  8
0
  6
CONTINUOUS
 62
     3
 10
30890.6
 20
20364.2
 30
0.0
 11
31018.6
 21
20350.2
 31
0.0
  0
LINE
  5
C4
  8
0
  6
CONTINUOUS
 62
     3
 10
36532.5
 20
19565.9
 30
0.0
 11
37160.7
 21
19325.2
 31
0.0
  0
LINE
  5
C5
  8
0
  6
CONTINUOUS
 62
     3
 10
36535.7
 20
19574.4
 30
0.0
 11
36532.5
 21
19565.9
 31
0.0
  0
LINE
  5
C6
  8
0
  6
CONTINUOUS
 62
     3
 10
37154.7
 20
19574.3
 30
0.0
 11
37154.7
 21
19343.2
 31
0.0
  0
LINE
  5
C7
  8
0
  6
CONTINUOUS
 62
     3
 10
37339.8
 20
19274.3
 30
0.0
 11
37177.6
 21
19314.0
 31
0.0
  0
LINE
  5
C8
  8
0
  6
CONTINUOUS
 62
     3
 10
37339.8
 20
19274.3
 30
0.0
 11
37405.2
 21
19519.8
 31
0.0
  0
LINE
  5
C9
  8
0
  6
CONTINUOUS
 62
     3
 10
37469.7
 20
19574.3
 30
0.0
 11
37469.7
 21
19564.3
 31
0.0
  0
LINE
  5
CA
  8
0
  6
CONTINUOUS
 62
     3
 10
37463.2
 20
19564.3
 30
0.0
 11
37469.7
 21
19564.3
 31
0.0
  0
LINE
  5
CB
  8
0
  6
CONTINUOUS
 62
     3
 10
40153.7
 20
19938.3
 30
0.0
 11
39783.7
 21
19574.3
 31
0.0
  0
LINE
  5
CC
  8
0
  6
CONTINUOUS
 62
     3
 10
40088.7
 20
20209.3
 30
0.0
 11
40153.7
 21
20144.3
 31
0.0
  0
LINE
  5
CD
  8
0
  6
CONTINUOUS
 62
     3
 10
40153.7
 20
20144.3
 30
0.0
 11
40153.7
 21
19938.3
 31
0.0
  0
LINE
  5
CE
  8
0
  6
CONTINUOUS
 62
     3
 10
5834.28
 20
20597.2
 30
0.0
 11
5819.27
 21
20457.0
 31
0.0
  0
LINE
  5
CF
  8
0
  6
CONTINUOUS
 62
     3
 10
5706.28
 20
20611.2
 30
0.0
 11
5834.29
 21
20597.2
 31
0.0
  0
LINE
  5
D0
  8
0
  6
CONTINUOUS
 62
     3
 10
5549.33
 20
19821.3
 30
0.0
 11
14599.4
 21
19821.3
 31
0.0
  0
LINE
  5
D1
  8
0
  6
CONTINUOUS
 62
     3
 10
5818.95
 20
20456.3
 30
0.0
 11
14904.4
 21
20456.3
 31
0.0
  0
LINE
  5
D2
  8
0
  6
CONTINUOUS
 62
     3
 10
5059.84
 20
20090.9
 30
0.0
 11
4966.82
 21
20111.8
 31
0.0
  0
LINE
  5
D3
  8
0
  6
CONTINUOUS
 62
     3
 10
4924.9
 20
20197.0
 30
0.0
 11
4789.23
 21
20028.2
 31
0.0
  0
LINE
  5
D4
  8
0
  6
CONTINUOUS
 62
     3
 10
5056.78
 20
20077.3
 30
0.0
 11
5099.42
 21
20266.9
 31
0.0
  0
LINE
  5
D5
  8
0
  6
CONTINUOUS
 62
     3
 10
5283.31
 20
19806.2
 30
0.0
 11
5543.3
 21
20419.2
 31
0.0
  0
LINE
  5
D6
  8
0
  6
CONTINUOUS
 62
     3
 10
5103.3
 20
19894.0
 30
0.0
 11
5214.85
 21
20157.0
 31
0.0
  0
LINE
  5
D7
  8
0
  6
CONTINUOUS
 62
     3
 10
5303.27
 20
19830.323553
 30
0.0
 11
5576.26
 21
20473.3
 31
0.0
  0
LINE
  5
D8
  8
0
  6
CONTINUOUS
 62
     3
 10
5529.79
 20
19775.3
 30
0.0
 11
5819.26
 21
20457.1
 31
0.0
  0
LINE
  5
D9
  8
0
  6
CONTINUOUS
 62
     3
 10
5076.35
 20
19616.1
 30
0.0
 11
4953.08
 21
19732.0
 31
0.0
  0
LINE
  5
DA
  8
0
  6
CONTINUOUS
 62
     3
 10
5148.42
 20
19685.3
 30
0.0
 11
5015.11
 21
19839.5
 31
0.0
  0
LINE
  5
DB
  8
0
  6
CONTINUOUS
 62
     3
 10
4769.53
 20
19414.1
 30
0.0
 11
5040.38
 21
19883.3
 31
0.0
  0
LINE
  5
DC
  8
0
  6
CONTINUOUS
 62
     3
 10
4735.78
 20
19394.6
 30
0.0
 11
4769.51
 21
19414.1
 31
0.0
  0
LINE
  5
DD
  8
0
  6
CONTINUOUS
 62
     3
 10
4518.39
 20
19559.1
 30
0.0
 11
4789.23
 21
20028.3
 31
0.0
  0
LINE
  5
DE
  8
0
  6
CONTINUOUS
 62
     3
 10
4518.44
 20
19520.0
 30
0.0
 11
4518.44
 21
19559.2
 31
0.0
  0
LINE
  5
DF
  8
0
  6
CONTINUOUS
 62
     3
 10
5328.27
 20
19775.2
 30
0.0
 11
5529.79
 21
19775.2
 31
0.0
  0
LINE
  5
E0
  8
0
  6
CONTINUOUS
 62
     3
 10
5128.29
 20
19806.2
 30
0.0
 11
5283.29
 21
19806.2
 31
0.0
  0
LINE
  5
E1
  8
0
  6
CONTINUOUS
 62
     3
 10
5103.29
 20
19844.2
 30
0.0
 11
5103.29
 21
19882.2
 31
0.0
  0
LINE
  5
E2
  8
0
  6
CONTINUOUS
 62
     3
 10
5056.3
 20
20073.1
 30
0.0
 11
5056.3
 21
19844.2
 31
0.0
  0
LINE
  5
E3
  8
0
  6
CONTINUOUS
 62
     3
 10
5040.38
 20
20095.3
 30
0.0
 11
5040.38
 21
19883.2
 31
0.0
  0
LINE
  5
E4
  8
0
  6
CONTINUOUS
 62
     3
 10
5056.3
 20
19844.2
 30
0.0
 11
5103.29
 21
19844.2
 31
0.0
  0
LINE
  5
E5
  8
0
  6
CONTINUOUS
 62
     3
 10
5056.3
 20
19882.2
 30
0.0
 11
5103.27
 21
19882.2
 31
0.0
  0
LINE
  5
E6
  8
0
  6
CONTINUOUS
 62
     3
 10
5103.29
 20
19867.2
 30
0.0
 11
5103.29
 21
19844.2
 31
0.0
  0
LINE
  5
E7
  8
0
  6
CONTINUOUS
 62
     3
 10
5103.27
 20
19894.0
 30
0.0
 11
5103.27
 21
19831.2
 31
0.0
  0
LINE
  5
E8
  8
0
  6
CONTINUOUS
 62
     3
 10
5103.28
 20
19831.2
 30
0.0
 11
5128.27
 21
19806.2
 31
0.0
  0
LINE
  5
E9
  8
0
  6
CONTINUOUS
 62
     3
 10
5302.39
 20
19851.2
 30
0.0
 11
5312.18
 21
19851.2
 31
0.0
  0
LINE
  5
EA
  8
0
  6
CONTINUOUS
 62
     3
 10
5303.27
 20
19830.2
 30
0.0
 11
5303.27
 21
19800.2
 31
0.0
  0
LINE
  5
EB
  8
0
  6
CONTINUOUS
 62
     3
 10
5303.27
 20
19830.323553
 30
0.0
 11
5303.27
 21
19813.2
 31
0.0
  0
LINE
  5
EC
  8
0
  6
CONTINUOUS
 62
     3
 10
5303.27
 20
19800.2
 30
0.0
 11
5328.27
 21
19775.2
 31
0.0
  0
LINE
  5
ED
  8
0
  6
CONTINUOUS
 62
     3
 10
5091.0
 20
20229.4
 30
0.0
 11
4939.84
 21
20263.4
 31
0.0
  0
LINE
  5
EE
  8
0
  6
CONTINUOUS
 62
     3
 10
4874.71
 20
20560.2
 30
0.0
 11
4981.47
 21
20468.0
 31
0.0
  0
LINE
  5
EF
  8
0
  6
CONTINUOUS
 62
     3
 10
4728.3
 20
20450.8
 30
0.0
 11
4728.3
 21
20205.4
 31
0.0
  0
LINE
  5
F0
  8
0
  6
CONTINUOUS
 62
     3
 10
4873.24
 20
20132.8
 30
0.0
 11
4767.33
 21
20156.7
 31
0.0
  0
LINE
  5
F1
  8
0
  6
CONTINUOUS
 62
     3
 10
4921.94
 20
20183.8
 30
0.0
 11
4939.84
 21
20263.4
 31
0.0
  0
LINE
  5
F2
  8
0
  6
CONTINUOUS
 62
     3
 10
4813.3
 20
20742.7
 30
0.0
 11
4813.3
 21
20557.3
 31
0.0
  0
LINE
  5
F3
  8
0
  6
CONTINUOUS
 62
     3
 10
4838.3
 20
20560.2
 30
0.0
 11
4874.71
 21
20560.2
 31
0.0
  0
LINE
  5
F4
  8
0
  6
CONTINUOUS
 62
     3
 10
4863.29
 20
20742.7
 30
0.0
 11
4863.29
 21
20560.2
 31
0.0
  0
LINE
  5
F5
  8
0
  6
CONTINUOUS
 62
     3
 10
5208.3
 20
20527.2
 30
0.0
 11
5543.3
 21
20419.2
 31
0.0
  0
LINE
  5
F6
  8
0
  6
CONTINUOUS
 62
     3
 10
5158.29
 20
20667.2
 30
0.0
 11
5158.29
 21
20386.2
 31
0.0
  0
LINE
  5
F7
  8
0
  6
CONTINUOUS
 62
     3
 10
5208.28
 20
20667.2
 30
0.0
 11
5208.28
 21
20386.2
 31
0.0
  0
LINE
  5
F8
  8
0
  6
CONTINUOUS
 62
     3
 10
5114.25
 20
20410.9
 30
0.0
 11
5209.4
 21
20246.1
 31
0.0
  0
LINE
  5
F9
  8
0
  6
CONTINUOUS
 62
     3
 10
5158.29
 20
20309.2
 30
0.0
 11
5158.29
 21
20334.5
 31
0.0
  0
LINE
  5
FA
  8
0
  6
CONTINUOUS
 62
     3
 10
5158.31
 20
20386.2
 30
0.0
 11
5208.3
 21
20386.2
 31
0.0
  0
LINE
  5
FB
  8
0
  6
CONTINUOUS
 62
     3
 10
5047.89
 20
20401.9
 30
0.0
 11
5105.03
 21
20434.9
 31
0.0
  0
LINE
  5
FC
  8
0
  6
CONTINUOUS
 62
     3
 10
5126.55
 20
20389.6
 30
0.0
 11
5072.87
 21
20358.6
 31
0.0
  0
LINE
  5
FD
  8
0
  6
CONTINUOUS
 62
     3
 10
5158.31
 20
20667.2
 30
0.0
 11
5208.3
 21
20667.2
 31
0.0
  0
LINE
  5
FE
  8
0
  6
CONTINUOUS
 62
     3
 10
5158.29
 20
20527.2
 30
0.0
 11
5158.29
 21
20593.2
 31
0.0
  0
LINE
  5
FF
  8
0
  6
CONTINUOUS
 62
     3
 10
5208.28
 20
20593.2
 30
0.0
 11
5208.28
 21
20529.1
 31
0.0
  0
LINE
  5
100
  8
0
  6
CONTINUOUS
 62
     3
 10
5104.97
 20
20467.6
 30
0.0
 11
5047.82
 21
20500.6
 31
0.0
  0
LINE
  5
101
  8
0
  6
CONTINUOUS
 62
     3
 10
5072.82
 20
20543.9
 30
0.0
 11
5129.97
 21
20510.9
 31
0.0
  0
LINE
  5
102
  8
0
  6
CONTINUOUS
 62
     3
 10
5244.69
 20
20515.5
 30
0.0
 11
5293.79
 21
20543.9
 31
0.0
  0
LINE
  5
103
  8
0
  6
CONTINUOUS
 62
     3
 10
5318.78
 20
20500.6
 30
0.0
 11
5308.84
 21
20494.8
 31
0.0
  0
LINE
  5
104
  8
0
  6
CONTINUOUS
 62
     3
 10
5540.32
 20
20412.2
 30
0.0
 11
5550.37
 21
20412.2
 31
0.0
  0
LINE
  5
105
  8
0
  6
CONTINUOUS
 62
     3
 10
5576.3
 20
20473.2
 30
0.0
 11
5706.3
 21
20611.2
 31
0.0
  0
LINE
  5
106
  8
0
  6
CONTINUOUS
 62
     3
 10
11348.2
 20
19812.9
 30
0.0
 11
11976.4
 21
19572.2
 31
0.0
  0
LINE
  5
107
  8
0
  6
CONTINUOUS
 62
     3
 10
11351.4
 20
19821.3
 30
0.0
 11
11348.2
 21
19812.9
 31
0.0
  0
LINE
  5
108
  8
0
  6
CONTINUOUS
 62
     3
 10
11970.4
 20
19821.3
 30
0.0
 11
11970.4
 21
19590.2
 31
0.0
  0
LINE
  5
109
  8
0
  6
CONTINUOUS
 62
     3
 10
12155.5
 20
19521.3
 30
0.0
 11
12220.9
 21
19766.8
 31
0.0
  0
LINE
  5
10A
  8
0
  6
CONTINUOUS
 62
     3
 10
12155.5
 20
19521.3
 30
0.0
 11
11993.3
 21
19561.0
 31
0.0
  0
LINE
  5
10B
  8
0
  6
CONTINUOUS
 62
     3
 10
14969.4
 20
20185.3
 30
0.0
 11
14599.4
 21
19821.3
 31
0.0
  0
LINE
  5
10C
  8
0
  6
CONTINUOUS
 62
     3
 10
12285.4
 20
19821.3
 30
0.0
 11
12285.4
 21
19811.3
 31
0.0
  0
LINE
  5
10D
  8
0
  6
CONTINUOUS
 62
     3
 10
12278.9
 20
19811.3
 30
0.0
 11
12285.4
 21
19811.3
 31
0.0
  0
LINE
  5
10E
  8
0
  6
CONTINUOUS
 62
     3
 10
14904.4
 20
20456.3
 30
0.0
 11
14969.4
 21
20391.3
 31
0.0
  0
LINE
  5
10F
  8
0
  6
CONTINUOUS
 62
     3
 10
14969.4
 20
20391.3
 30
0.0
 11
14969.4
 21
20185.3
 31
0.0
  0
LINE
  5
110
  8
0
  6
CONTINUOUS
 62
     3
 10
7745.87
 20
6617.08
 30
0.0
 11
7745.86
 21
5857.06
 31
0.0
  0
LINE
  5
111
  8
0
  6
CONTINUOUS
 62
     3
 10
7257.87
 20
5717.68
 30
0.0
 11
7257.86
 21
6866.04
 31
0.0
  0
LINE
  5
112
  8
0
  6
CONTINUOUS
 62
     3
 10
6944.15
 20
5332.08
 30
0.0
 11
6258.89
 21
6702.63
 31
0.0
  0
LINE
  5
113
  8
0
  6
CONTINUOUS
 62
     3
 10
7257.85
 20
5704.42
 30
0.0
 11
7585.173445
 21
5857.050001
 31
0.0
  0
LINE
  5
114
  8
0
  6
CONTINUOUS
 62
     3
 10
7059.57
 20
5260.83
 30
0.0
 11
7536.83
 21
5260.79
 31
0.0
  0
LINE
  5
115
  8
0
  6
CONTINUOUS
 62
     3
 10
7257.86
 20
5260.81
 30
0.0
 11
7257.87
 21
5717.68
 31
0.0
  0
LINE
  5
116
  8
0
  6
CONTINUOUS
 62
     3
 10
6765.38
 20
6291.16
 30
0.0
 11
7005.55
 21
5810.82
 31
0.0
  0
LINE
  5
117
  8
0
  6
CONTINUOUS
 62
     3
 10
7086.08
 20
5761.1
 30
0.0
 11
7257.88
 21
5761.09
 31
0.0
  0
LINE
  5
118
  8
0
  6
CONTINUOUS
 62
     3
 10
7599.89
 20
5838.11
 30
0.0
 11
7599.86
 21
5636.05
 31
0.0
  0
LINE
  5
119
  8
0
  6
CONTINUOUS
 62
     3
 10
7925.86
 20
5657.07
 30
0.0
 11
7925.87
 21
5637.08
 31
0.0
  0
LINE
  5
11A
  8
0
  6
CONTINUOUS
 62
     3
 10
7553.31
 20
5270.33
 30
0.0
 11
7753.52
 21
5617.1
 31
0.0
  0
LINE
  5
11B
  8
0
  6
CONTINUOUS
 62
     3
 10
7619.89
 20
5617.1
 30
0.0
 11
7905.88
 21
5617.1
 31
0.0
  0
LINE
  5
11C
  8
0
  6
CONTINUOUS
 62
     3
 10
7585.173445
 20
5857.050001
 30
0.0
 11
7833.59
 21
5857.1
 31
0.0
  0
LINE
  5
11D
  8
0
  6
CONTINUOUS
 62
     3
 10
7885.85
 20
5677.05
 30
0.0
 11
7905.85
 21
5677.05
 31
0.0
  0
LINE
  5
11E
  8
0
  6
CONTINUOUS
 62
     3
 10
7833.59
 20
5857.1
 30
0.0
 11
7843.44
 21
5807.07
 31
0.0
  0
LINE
  5
11F
  8
0
  6
CONTINUOUS
 62
     3
 10
7843.44
 20
5807.07
 30
0.0
 11
7843.43
 21
5779.48
 31
0.0
  0
LINE
  5
121
  8
0
  6
CONTINUOUS
 62
     3
 10
7257.86
 20
6617.07
 30
0.0
 11
7885.87
 21
6617.08
 31
0.0
  0
LINE
  5
122
  8
0
  6
CONTINUOUS
 62
     3
 10
6265.87
 20
6866.03
 30
0.0
 11
7733.85
 21
6866.04
 31
0.0
  0
LINE
  5
123
  8
0
  6
CONTINUOUS
 62
     3
 10
6265.87
 20
6866.03
 30
0.0
 11
6265.89
 21
6876.07
 31
0.0
  0
LINE
  5
124
  8
0
  6
CONTINUOUS
 62
     3
 10
6256.89
 20
6876.07
 30
0.0
 11
6265.89
 21
6876.07
 31
0.0
  0
LINE
  5
125
  8
0
  6
CONTINUOUS
 62
     3
 10
6256.89
 20
6876.07
 30
0.0
 11
6256.89
 21
6711.17
 31
0.0
  0
LINE
  5
126
  8
0
  6
CONTINUOUS
 62
     3
 10
6845.85
 20
6607.04
 30
0.0
 11
7257.85
 21
6607.04
 31
0.0
  0
LINE
  5
127
  8
0
  6
CONTINUOUS
 62
     3
 10
6755.89
 20
6518.11
 30
0.0
 11
6755.87
 21
6331.41
 31
0.0
  0
LINE
  5
128
  8
0
  6
CONTINUOUS
 62
     3
 10
7745.86
 20
6857.03
 30
0.0
 11
7745.87
 21
6617.08
 31
0.0
  0
LINE
  5
129
  8
0
  6
CONTINUOUS
 62
     3
 10
7745.87
 20
6876.08
 30
0.0
 11
7745.86
 21
6857.03
 31
0.0
  0
LINE
  5
12A
  8
0
  6
CONTINUOUS
 62
     3
 10
7745.86
 20
6857.03
 30
0.0
 11
7885.85
 21
6857.03
 31
0.0
  0
LINE
  5
12B
  8
0
  6
CONTINUOUS
 62
     3
 10
7733.88
 20
6876.07
 30
0.0
 11
7745.88
 21
6876.07
 31
0.0
  0
LINE
  5
12C
  8
0
  6
CONTINUOUS
 62
     3
 10
7733.87
 20
6876.08
 30
0.0
 11
7745.88
 21
6876.07
 31
0.0
  0
LINE
  5
12D
  8
0
  6
CONTINUOUS
 62
     3
 10
7733.87
 20
6876.08
 30
0.0
 11
7733.85
 21
6857.04
 31
0.0
  0
LINE
  5
12E
  8
0
  6
CONTINUOUS
 62
     3
 10
15436.057376
 20
6126.239973
 30
0.0
 11
13808.5
 21
6126.23
 31
0.0
  0
LINE
  5
12F
  8
0
  6
CONTINUOUS
 62
     3
 10
13808.5
 20
5827.75
 30
0.0
 11
15435.992162
 21
5827.739953
 31
0.0
  0
LINE
  5
130
  8
0
  6
CONTINUOUS
 62
     3
 10
13617.5
 20
6081.0
 30
0.0
 11
13617.4
 21
5872.98
 31
0.0
  0
LINE
  5
131
  8
0
  6
CONTINUOUS
 62
     3
 10
13668.4
 20
6101.99
 30
0.0
 11
13668.4
 21
5851.99
 31
0.0
  0
LINE
  5
132
  8
0
  6
CONTINUOUS
 62
     3
 10
13678.4
 20
6136.98
 30
0.0
 11
13678.4
 21
5817.01
 31
0.0
  0
LINE
  5
133
  8
0
  6
CONTINUOUS
 62
     3
 10
13808.500778
 20
6139.48
 30
0.0
 11
13808.399219
 21
5814.49
 31
0.0
  0
LINE
  5
134
  8
0
  6
CONTINUOUS
 62
     3
 10
13668.4
 20
5873.013887
 30
0.0
 11
13617.4
 21
5872.98
 31
0.0
  0
LINE
  5
135
  8
0
  6
CONTINUOUS
 62
     3
 10
13497.4
 20
5876.97
 30
0.0
 11
13617.4
 21
5876.97
 31
0.0
  0
LINE
  5
137
  8
0
  6
CONTINUOUS
 62
     3
 10
13680.9
 20
5814.49
 30
0.0
 11
13808.399219
 21
5814.49
 31
0.0
  0
LINE
  5
139
  8
0
  6
CONTINUOUS
 62
     3
 10
13678.4
 20
5816.99
 30
0.0
 11
13680.9
 21
5814.47
 31
0.0
  0
LINE
  5
13A
  8
0
  6
CONTINUOUS
 62
     3
 10
13670.9
 20
5849.5
 30
0.0
 11
13678.4
 21
5849.5
 31
0.0
  0
LINE
  5
13E
  8
0
  6
CONTINUOUS
 62
     3
 10
13668.4
 20
5851.98
 30
0.0
 11
13670.9
 21
5849.49
 31
0.0
  0
LINE
  5
13F
  8
0
  6
CONTINUOUS
 62
     3
 10
13668.4
 20
6080.99
 30
0.0
 11
13617.5
 21
6081.0
 31
0.0
  0
LINE
  5
140
  8
0
  6
CONTINUOUS
 62
     3
 10
13497.4
 20
6076.97
 30
0.0
 11
13617.5
 21
6076.97
 31
0.0
  0
LINE
  5
141
  8
0
  6
CONTINUOUS
 62
     3
 10
13808.500778
 20
6139.48
 30
0.0
 11
13680.9
 21
6139.48
 31
0.0
  0
LINE
  5
142
  8
0
  6
CONTINUOUS
 62
     3
 10
13678.4
 20
6104.48
 30
0.0
 11
13671.0
 21
6104.49
 31
0.0
  0
LINE
  5
143
  8
0
  6
CONTINUOUS
 62
     3
 10
13680.9
 20
6139.47
 30
0.0
 11
13678.4
 21
6136.97
 31
0.0
  0
LINE
  5
144
  8
0
  6
CONTINUOUS
 62
     3
 10
13670.9
 20
6104.5
 30
0.0
 11
13668.4
 21
6101.99
 31
0.0
  0
LINE
  5
145
  8
0
  6
CONTINUOUS
 62
     6
 10
21917.1
 20
6521.99
 30
0.0
 11
21558.6
 21
6521.99
 31
0.0
  0
LINE
  5
146
  8
0
  6
CONTINUOUS
 62
     6
 10
21627.1
 20
5652.35
 30
0.0
 11
21838.0
 21
5652.35
 31
0.0
  0
LINE
  5
147
  8
0
  6
CONTINUOUS
 62
     6
 10
21821.9
 20
5541.53
 30
0.0
 11
21737.8
 21
5541.53
 31
0.0
  0
LINE
  5
148
  8
0
  6
CONTINUOUS
 62
     6
 10
21387.8
 20
6234.58
 30
0.0
 11
21558.6
 21
6521.99
 31
0.0
  0
LINE
  5
149
  8
0
  6
CONTINUOUS
 62
     6
 10
21387.8
 20
6234.58
 30
0.0
 11
21387.8
 21
6093.4
 31
0.0
  0
LINE
  5
14A
  8
0
  6
CONTINUOUS
 62
     6
 10
21387.8
 20
6093.4
 30
0.0
 11
21653.8
 21
5541.53
 31
0.0
  0
LINE
  5
14B
  8
0
  6
CONTINUOUS
 62
     6
 10
21653.8
 20
5541.53
 30
0.0
 11
21737.8
 21
5541.53
 31
0.0
  0
LINE
  5
14C
  8
0
  6
CONTINUOUS
 62
     6
 10
22087.9
 20
6234.58
 30
0.0
 11
21917.1
 21
6521.99
 31
0.0
  0
LINE
  5
14D
  8
0
  6
CONTINUOUS
 62
     6
 10
22087.9
 20
6234.58
 30
0.0
 11
22087.9
 21
6093.4
 31
0.0
  0
LINE
  5
14E
  8
0
  6
CONTINUOUS
 62
     6
 10
22087.9
 20
6093.4
 30
0.0
 11
21821.9
 21
5541.53
 31
0.0
  0
LINE
  5
14F
  8
0
  6
CONTINUOUS
 62
     6
 10
26897.6
 20
6457.3
 30
0.0
 11
26897.6
 21
5805.61
 31
0.0
  0
LINE
  5
150
  8
0
  6
CONTINUOUS
 62
     6
 10
26497.6
 20
6457.3
 30
0.0
 11
26497.6
 21
5805.61
 31
0.0
  0
LINE
  5
151
  8
0
  6
CONTINUOUS
 62
     6
 10
26571.9
 20
5603.33
 30
0.0
 11
26582.3
 21
5592.88
 31
0.0
  0
LINE
  5
152
  8
0
  6
CONTINUOUS
 62
     6
 10
26705.4
 20
5611.4
 30
0.0
 11
26741.8
 21
5574.95
 31
0.0
  0
LINE
  5
153
  8
0
  6
CONTINUOUS
 62
     6
 10
26537.6
 20
5755.61
 30
0.0
 11
26497.6
 21
5805.61
 31
0.0
  0
LINE
  5
154
  8
0
  6
CONTINUOUS
 62
     6
 10
26497.6
 20
6108.61
 30
0.0
 11
26897.6
 21
6108.61
 31
0.0
  0
LINE
  5
155
  8
0
  6
CONTINUOUS
 62
     6
 10
26537.6
 20
5755.61
 30
0.0
 11
26857.6
 21
5755.61
 31
0.0
  0
LINE
  5
156
  8
0
  6
CONTINUOUS
 62
     6
 10
26857.6
 20
5755.62
 30
0.0
 11
26897.6
 21
5805.62
 31
0.0
  0
LINE
  5
157
  8
0
  6
CONTINUOUS
 62
     6
 10
26497.6
 20
6457.3
 30
0.0
 11
26557.1
 21
6558.61
 31
0.0
  0
LINE
  5
158
  8
0
  6
CONTINUOUS
 62
     6
 10
26838.2
 20
6558.61
 30
0.0
 11
26897.6
 21
6457.29
 31
0.0
  0
LINE
  5
159
  8
0
  6
CONTINUOUS
 62
     6
 10
26557.1
 20
6558.61
 30
0.0
 11
26838.2
 21
6558.61
 31
0.0
  0
LINE
  5
15A
  8
0
  6
CONTINUOUS
 62
     3
 10
6413.39
 20
20390.3
 30
0.0
 11
7193.39
 21
20390.3
 31
0.0
  0
LINE
  5
15B
  8
0
  6
CONTINUOUS
 62
     3
 10
6413.38
 20
20390.3
 30
0.0
 11
6353.38
 21
20450.3
 31
0.0
  0
LINE
  5
15C
  8
0
  6
CONTINUOUS
 62
     3
 10
7193.37
 20
20390.3
 30
0.0
 11
7253.37
 21
20450.3
 31
0.0
  0
LINE
  5
15D
  8
0
  6
CONTINUOUS
 62
     3
 10
5216.35
 20
20655.5
 30
0.0
 11
5473.93
 21
20613.8
 31
0.0
  0
LINE
  5
15E
  8
0
  6
CONTINUOUS
 62
     3
 10
5298.09
 20
20618.0
 30
0.0
 11
5470.1
 21
20590.2
 31
0.0
  0
LINE
  5
15F
  8
0
  6
CONTINUOUS
 62
     3
 10
5899.36
 20
20551.1
 30
0.0
 11
5893.61
 21
20515.5
 31
0.0
  0
LINE
  5
160
  8
0
  6
CONTINUOUS
 62
     3
 10
5475.45
 20
20623.2
 30
0.0
 11
5685.56
 21
20589.2
 31
0.0
  0
LINE
  5
161
  8
0
  6
CONTINUOUS
 62
     3
 10
5468.58
 20
20580.8
 30
0.0
 11
5649.96
 21
20551.4
 31
0.0
  0
LINE
  5
162
  8
0
  6
CONTINUOUS
 62
     3
 10
5475.45
 20
20623.2
 30
0.0
 11
5468.58
 21
20580.8
 31
0.0
  0
LINE
  5
163
  8
0
  6
CONTINUOUS
 62
     3
 10
5830.53
 20
20562.2
 30
0.0
 11
5899.36
 21
20551.1
 31
0.0
  0
LINE
  5
164
  8
0
  6
CONTINUOUS
 62
     3
 10
5826.69
 20
20526.4
 30
0.0
 11
5893.61
 21
20515.5
 31
0.0
  0
LINE
  5
16D
  8
0
  6
CONTINUOUS
 62
     3
 10
31597.7
 20
20143.3
 30
0.0
 11
31537.7
 21
20203.3
 31
0.0
  0
LINE
  5
16E
  8
0
  6
CONTINUOUS
 62
     3
 10
31597.7
 20
20143.3
 30
0.0
 11
32377.7
 21
20143.3
 31
0.0
  0
LINE
  5
16F
  8
0
  6
CONTINUOUS
 62
     3
 10
32377.7
 20
20143.3
 30
0.0
 11
32437.7
 21
20203.3
 31
0.0
  0
LINE
  5
170
  8
0
  6
CONTINUOUS
 62
     3
 10
26583.4
 20
20385.2
 30
0.0
 11
30651.5
 21
20293.4
 31
0.0
  0
LINE
  5
171
  8
0
  6
CONTINUOUS
 62
     3
 10
31082.1
 20
20313.7
 30
0.0
 11
31081.2
 21
20277.7
 31
0.0
  0
LINE
  5
172
  8
0
  6
CONTINUOUS
 62
     3
 10
30652.3
 20
20326.9
 30
0.0
 11
30851.2
 21
20322.4
 31
0.0
  0
LINE
  5
173
  8
0
  6
CONTINUOUS
 62
     3
 10
30651.3
 20
20283.9
 30
0.0
 11
30811.6
 21
20280.3
 31
0.0
  0
LINE
  5
174
  8
0
  6
CONTINUOUS
 62
     3
 10
30652.3
 20
20326.9
 30
0.0
 11
30651.3
 21
20283.9
 31
0.0
  0
LINE
  5
175
  8
0
  6
CONTINUOUS
 62
     3
 10
31012.3
 20
20315.3
 30
0.0
 11
31082.1
 21
20313.7
 31
0.0
  0
LINE
  5
176
  8
0
  6
CONTINUOUS
 62
     3
 10
31013.5
 20
20279.3
 30
0.0
 11
31081.2
 21
20277.7
 31
0.0
  0
LINE
  5
17B
  8
0
  6
CONTINUOUS
 62
     3
 10
22144.4
 20
14605.4
 30
0.0
 11
22084.4
 21
14665.4
 31
0.0
  0
LINE
  5
17C
  8
0
  6
CONTINUOUS
 62
     3
 10
22144.4
 20
14605.4
 30
0.0
 11
22924.4
 21
14605.4
 31
0.0
  0
LINE
  5
17D
  8
0
  6
CONTINUOUS
 62
     3
 10
22924.4
 20
14605.4
 30
0.0
 11
22990.4
 21
14671.4
 31
0.0
  0
LINE
  5
17E
  8
0
  6
CONTINUOUS
 62
     3
 10
13189.3
 20
14873.0
 30
0.0
 11
21198.6
 21
14775.6
 31
0.0
  0
LINE
  5
17F
  8
0
  6
CONTINUOUS
 62
     3
 10
13253.2
 20
14848.2
 30
0.0
 11
21198.3
 21
14751.6
 31
0.0
  0
LINE
  5
180
  8
0
  6
CONTINUOUS
 62
     3
 10
21628.6
 20
14776.4
 30
0.0
 11
21628.2
 21
14740.4
 31
0.0
  0
LINE
  5
181
  8
0
  6
CONTINUOUS
 62
     3
 10
21198.7
 20
14785.1
 30
0.0
 11
21396.3
 21
14782.7
 31
0.0
  0
LINE
  5
182
  8
0
  6
CONTINUOUS
 62
     3
 10
21198.2
 20
14742.1
 30
0.0
 11
21356.2
 21
14740.2
 31
0.0
  0
LINE
  5
183
  8
0
  6
CONTINUOUS
 62
     3
 10
21198.7
 20
14785.1
 30
0.0
 11
21198.2
 21
14742.1
 31
0.0
  0
LINE
  5
184
  8
0
  6
CONTINUOUS
 62
     3
 10
21561.6
 20
14777.2
 30
0.0
 11
21628.6
 21
14776.4
 31
0.0
  0
LINE
  5
185
  8
0
  6
CONTINUOUS
 62
     3
 10
21557.7
 20
14741.2
 30
0.0
 11
21628.2
 21
14740.4
 31
0.0
  0
LINE
  5
186
  8
0
  6
CONTINUOUS
 62
     3
 10
26517.6
 20
20410.7
 30
0.0
 11
30652.0
 21
20317.4
 31
0.0
  0
ARC
  5
197
  8
0
  6
CONTINUOUS
 62
     3
 10
4894.41
 20
13735.3
 30
0.0
 40
295.008
 50
89.440909
 51
30.561246
  0
ARC
  5
198
  8
0
  6
CONTINUOUS
 62
     3
 10
5341.62
 20
13867.6
 30
0.0
 40
49.9997
 50
226.826
 51
40.8399
  0
ARC
  5
199
  8
0
  6
CONTINUOUS
 62
     3
 10
4894.41
 20
13735.3
 30
0.0
 40
145.0
 50
180.1
 51
300.054
  0
CIRCLE
  5
19A
  8
0
  6
CONTINUOUS
 62
     3
 10
4894.41
 20
13735.3
 30
0.0
 40
64.9999
  0
CIRCLE
  5
19B
  8
0
  6
CONTINUOUS
 62
     3
 10
4894.41
 20
13735.3
 30
0.0
 40
76.1997
  0
ARC
  5
19C
  8
0
  6
CONTINUOUS
 62
     3
 10
5069.34
 20
14665.3
 30
0.0
 40
275.0
 50
342.0779
 51
84.7853
  0
ARC
  5
19D
  8
0
  6
CONTINUOUS
 62
     3
 10
5069.34
 20
14665.3
 30
0.0
 40
275.0
 50
95.2154
 51
246.422
  0
CIRCLE
  5
19E
  8
0
  6
CONTINUOUS
 62
     3
 10
5069.34
 20
14665.3
 30
0.0
 40
42.0
  0
CIRCLE
  5
19F
  8
0
  6
CONTINUOUS
 62
     3
 10
5069.34
 20
14665.3
 30
0.0
 40
72.5001
  0
ARC
  5
1A0
  8
0
  6
CONTINUOUS
 62
     3
 10
5069.34
 20
14665.3
 30
0.0
 40
110.0
 50
90.0
 51
180.261
  0
ARC
  5
1A1
  8
0
  6
CONTINUOUS
 62
     3
 10
5009.34
 20
14420.5
 30
0.0
 40
50.0
 50
180.002
 51
257.324
  0
ARC
  5
1A2
  8
0
  6
CONTINUOUS
 62
     3
 10
5211.4
 20
14385.3
 30
0.0
 40
59.9998
 50
166.933
 51
257.324
  0
ARC
  5
1A3
  8
0
  6
CONTINUOUS
 62
     3
 10
5069.34
 20
14957.8
 30
0.0
 40
25.0
 50
0.0
 51
83.1085
  0
ARC
  5
1A4
  8
0
  6
CONTINUOUS
 62
     3
 10
5069.34
 20
14957.8
 30
0.0
 40
25.0
 50
96.8927
 51
181.385
  0
ARC
  5
1A5
  8
0
  6
CONTINUOUS
 62
     3
 10
13164.3
 20
14666.3
 30
0.0
 40
202.5
 50
97.0889
 51
276.699
  0
ARC
  5
1A6
  8
0
  6
CONTINUOUS
 62
     3
 10
13164.3
 20
14666.3
 30
0.0
 40
162.5
 50
165.728
 51
194.264
  0
ARC
  5
1A7
  8
0
  6
CONTINUOUS
 62
     3
 10
13164.3
 20
14666.3
 30
0.0
 40
80.0
 50
108.199
 51
210.313
  0
ARC
  5
1A8
  8
0
  6
CONTINUOUS
 62
     3
 10
13021.4
 20
14629.9
 30
0.0
 40
15.0
 50
194.26
 51
300.016
  0
ARC
  5
1A9
  8
0
  6
CONTINUOUS
 62
     3
 10
13124.3
 20
14524.3
 30
0.0
 40
15.0
 50
254.259
 51
0.016788
  0
ARC
  5
1AA
  8
0
  6
CONTINUOUS
 62
     3
 10
13103.8
 20
14411.1
 30
0.0
 40
99.9997
 50
337.017
 51
29.9994
  0
ARC
  5
1AB
  8
0
  6
CONTINUOUS
 62
     3
 10
13061.4
 20
14560.7
 30
0.0
 40
15.0001
 50
120.009
 51
225.708
  0
ARC
  5
1AC
  8
0
  6
CONTINUOUS
 62
     3
 10
13164.3
 20
14666.3
 30
0.0
 40
162.5
 50
225.728
 51
254.264
  0
ARC
  5
1AD
  8
0
  6
CONTINUOUS
 62
     3
 10
13021.4
 20
14702.6
 30
0.0
 40
15.0
 50
60.0098
 51
165.709
  0
ARC
  5
1AE
  8
0
  6
CONTINUOUS
 62
     3
 10
13164.3
 20
14666.3
 30
0.0
 40
162.5
 50
45.7276
 51
74.2636
  0
ARC
  5
1AF
  8
0
  6
CONTINUOUS
 62
     3
 10
13164.3
 20
14666.3
 30
0.0
 40
202.5
 50
5.40282
 51
82.9069
  0
ARC
  5
1B0
  8
0
  6
CONTINUOUS
 62
     3
 10
13124.3
 20
14808.2
 30
0.0
 40
15.0
 50
0.009339
 51
105.708
  0
ARC
  5
1B1
  8
0
  6
CONTINUOUS
 62
     3
 10
13204.3
 20
14808.2
 30
0.0
 40
15.0
 50
74.259
 51
180.017
  0
ARC
  5
1B2
  8
0
  6
CONTINUOUS
 62
     3
 10
13061.4
 20
14771.9
 30
0.0
 40
14.9998
 50
134.259
 51
240.016
  0
ARC
  5
1B3
  8
0
  6
CONTINUOUS
 62
     3
 10
13164.3
 20
14666.3
 30
0.0
 40
162.5
 50
105.728
 51
134.264
  0
ARC
  5
1B4
  8
0
  6
CONTINUOUS
 62
     3
 10
13164.3
 20
14666.3
 30
0.0
 40
162.5
 50
11.6256
 51
14.2632
  0
ARC
  5
1B5
  8
0
  6
CONTINUOUS
 62
     3
 10
13307.3
 20
14702.6
 30
0.0
 40
15.0
 50
14.2599
 51
120.016
  0
ARC
  5
1B6
  8
0
  6
CONTINUOUS
 62
     3
 10
13267.3
 20
14771.9
 30
0.0
 40
15.0001
 50
300.009
 51
45.7082
  0
ARC
  5
1B7
  8
0
  6
CONTINUOUS
 62
     3
 10
28009.9
 20
13966.3
 30
0.0
 40
60.0
 50
89.9963
 51
165.067
  0
ARC
  5
1B8
  8
0
  6
CONTINUOUS
 62
     3
 10
27731.4
 20
13805.2
 30
0.0
 40
30.0
 50
180.0
 51
256.228
  0
ARC
  5
1B9
  8
0
  6
CONTINUOUS
 62
     3
 10
22097.7
 20
19273.3
 30
0.0
 40
295.008
 50
89.443928
 51
30.562499
  0
ARC
  5
1BA
  8
0
  6
CONTINUOUS
 62
     3
 10
22544.9
 20
19405.6
 30
0.0
 40
49.9997
 50
226.826
 51
40.8399
  0
ARC
  5
1BB
  8
0
  6
CONTINUOUS
 62
     3
 10
22097.7
 20
19273.3
 30
0.0
 40
145.0
 50
180.1
 51
300.054
  0
CIRCLE
  5
1BC
  8
0
  6
CONTINUOUS
 62
     3
 10
22097.7
 20
19273.3
 30
0.0
 40
76.1997
  0
CIRCLE
  5
1BD
  8
0
  6
CONTINUOUS
 62
     3
 10
22097.7
 20
19273.3
 30
0.0
 40
64.9999
  0
ARC
  5
1BE
  8
0
  6
CONTINUOUS
 62
     3
 10
22272.6
 20
20203.3
 30
0.0
 40
275.0
 50
342.0779
 51
84.7853
  0
ARC
  5
1BF
  8
0
  6
CONTINUOUS
 62
     3
 10
22272.6
 20
20203.3
 30
0.0
 40
110.0
 50
90.0
 51
180.261
  0
CIRCLE
  5
1C0
  8
0
  6
CONTINUOUS
 62
     3
 10
22272.6
 20
20203.3
 30
0.0
 40
42.0
  0
ARC
  5
1C1
  8
0
  6
CONTINUOUS
 62
     3
 10
22272.6
 20
20203.3
 30
0.0
 40
275.0
 50
95.2154
 51
246.422
  0
ARC
  5
1C2
  8
0
  6
CONTINUOUS
 62
     3
 10
22212.6
 20
19958.4
 30
0.0
 40
50.0
 50
180.002
 51
257.324
  0
ARC
  5
1C3
  8
0
  6
CONTINUOUS
 62
     3
 10
22414.7
 20
19923.3
 30
0.0
 40
59.9998
 50
166.933
 51
257.324
  0
CIRCLE
  5
1C4
  8
0
  6
CONTINUOUS
 62
     3
 10
22272.6
 20
20203.3
 30
0.0
 40
72.5002
  0
ARC
  5
1C5
  8
0
  6
CONTINUOUS
 62
     3
 10
22272.6
 20
20495.8
 30
0.0
 40
25.0
 50
96.8927
 51
181.385
  0
ARC
  5
1C6
  8
0
  6
CONTINUOUS
 62
     3
 10
22272.6
 20
20495.8
 30
0.0
 40
25.0
 50
0.0
 51
83.1085
  0
ARC
  5
1C7
  8
0
  6
CONTINUOUS
 62
     3
 10
26595.5
 20
20309.8
 30
0.0
 40
15.0001
 50
300.009
 51
45.7082
  0
ARC
  5
1C8
  8
0
  6
CONTINUOUS
 62
     3
 10
26492.6
 20
20204.2
 30
0.0
 40
202.5
 50
5.40282
 51
82.9069
  0
ARC
  5
1C9
  8
0
  6
CONTINUOUS
 62
     3
 10
26492.6
 20
20204.2
 30
0.0
 40
202.5
 50
97.0889
 51
276.699
  0
ARC
  5
1CA
  8
0
  6
CONTINUOUS
 62
     3
 10
26492.6
 20
20204.2
 30
0.0
 40
162.5
 50
165.728
 51
194.264
  0
ARC
  5
1CB
  8
0
  6
CONTINUOUS
 62
     3
 10
26492.6
 20
20204.2
 30
0.0
 40
80.0
 50
108.199
 51
210.313
  0
ARC
  5
1CC
  8
0
  6
CONTINUOUS
 62
     3
 10
26492.6
 20
20204.2
 30
0.0
 40
162.5
 50
225.728
 51
254.264
  0
ARC
  5
1CD
  8
0
  6
CONTINUOUS
 62
     3
 10
26389.6
 20
20098.6
 30
0.0
 40
15.0001
 50
120.009
 51
225.708
  0
ARC
  5
1CE
  8
0
  6
CONTINUOUS
 62
     3
 10
26349.6
 20
20167.9
 30
0.0
 40
15.0
 50
194.26
 51
300.016
  0
ARC
  5
1CF
  8
0
  6
CONTINUOUS
 62
     3
 10
26452.6
 20
20062.3
 30
0.0
 40
15.0
 50
254.259
 51
0.016788
  0
ARC
  5
1D0
  8
0
  6
CONTINUOUS
 62
     3
 10
26432.1
 20
19949.1
 30
0.0
 40
99.9997
 50
337.017
 51
29.9994
  0
ARC
  5
1D1
  8
0
  6
CONTINUOUS
 62
     3
 10
26492.6
 20
20204.2
 30
0.0
 40
162.5
 50
105.728
 51
134.264
  0
ARC
  5
1D2
  8
0
  6
CONTINUOUS
 62
     3
 10
26389.6
 20
20309.9
 30
0.0
 40
14.9998
 50
134.259
 51
240.016
  0
ARC
  5
1D3
  8
0
  6
CONTINUOUS
 62
     3
 10
26349.6
 20
20240.6
 30
0.0
 40
15.0
 50
60.0098
 51
165.709
  0
ARC
  5
1D4
  8
0
  6
CONTINUOUS
 62
     3
 10
26452.6
 20
20346.2
 30
0.0
 40
15.0
 50
0.009339
 51
105.708
  0
ARC
  5
1D5
  8
0
  6
CONTINUOUS
 62
     3
 10
26532.6
 20
20346.2
 30
0.0
 40
15.0
 50
74.259
 51
180.017
  0
ARC
  5
1D6
  8
0
  6
CONTINUOUS
 62
     3
 10
26492.6
 20
20204.2
 30
0.0
 40
162.5
 50
45.7276
 51
74.2636
  0
ARC
  5
1D7
  8
0
  6
CONTINUOUS
 62
     3
 10
26492.6
 20
20204.2
 30
0.0
 40
162.5
 50
11.6256
 51
14.2632
  0
ARC
  5
1D8
  8
0
  6
CONTINUOUS
 62
     3
 10
26635.5
 20
20240.6
 30
0.0
 40
15.0
 50
14.2599
 51
120.016
  0
ARC
  5
1D9
  8
0
  6
CONTINUOUS
 62
     3
 10
37463.2
 20
19504.3
 30
0.0
 40
60.0
 50
89.9963
 51
165.067
  0
ARC
  5
1DA
  8
0
  6
CONTINUOUS
 62
     3
 10
37184.7
 20
19343.2
 30
0.0
 40
30.0
 50
180.0
 51
256.228
  0
ARC
  5
1DB
  8
0
  6
CONTINUOUS
 62
     3
 10
4663.37
 20
19520.3
 30
0.0
 40
295.008
 50
89.435847
 51
30.556183
  0
ARC
  5
1DC
  8
0
  6
CONTINUOUS
 62
     3
 10
4663.37
 20
19520.3
 30
0.0
 40
145.0
 50
180.1
 51
300.054
  0
CIRCLE
  5
1DD
  8
0
  6
CONTINUOUS
 62
     3
 10
4663.37
 20
19520.3
 30
0.0
 40
76.1997
  0
CIRCLE
  5
1DE
  8
0
  6
CONTINUOUS
 62
     3
 10
4663.37
 20
19520.3
 30
0.0
 40
64.9999
  0
ARC
  5
1DF
  8
0
  6
CONTINUOUS
 62
     3
 10
5110.58
 20
19652.6
 30
0.0
 40
49.9997
 50
226.826
 51
40.8399
  0
ARC
  5
1E0
  8
0
  6
CONTINUOUS
 62
     3
 10
4838.3
 20
20450.3
 30
0.0
 40
275.0
 50
36.0934
 51
84.7861
  0
ARC
  5
1E1
  8
0
  6
CONTINUOUS
 62
     3
 10
4838.3
 20
20450.3
 30
0.0
 40
275.0
 50
95.2154
 51
246.422
  0
ARC
  5
1E2
  8
0
  6
CONTINUOUS
 62
     3
 10
5183.28
 20
20451.2
 30
0.0
 40
202.5
 50
97.0889
 51
276.699
  0
CIRCLE
  5
1E3
  8
0
  6
CONTINUOUS
 62
     3
 10
4838.3
 20
20450.3
 30
0.0
 40
42.0
  0
CIRCLE
  5
1E4
  8
0
  6
CONTINUOUS
 62
     3
 10
4838.3
 20
20450.3
 30
0.0
 40
72.5002
  0
ARC
  5
1E5
  8
0
  6
CONTINUOUS
 62
     3
 10
4778.3
 20
20205.4
 30
0.0
 40
50.0
 50
180.002
 51
257.324
  0
ARC
  5
1E6
  8
0
  6
CONTINUOUS
 62
     3
 10
4980.36
 20
20170.3
 30
0.0
 40
59.9998
 50
166.933
 51
257.324
  0
ARC
  5
1E7
  8
0
  6
CONTINUOUS
 62
     3
 10
4838.3
 20
20742.7
 30
0.0
 40
25.0
 50
96.8927
 51
181.385
  0
ARC
  5
1E8
  8
0
  6
CONTINUOUS
 62
     3
 10
4838.3
 20
20450.3
 30
0.0
 40
110.0
 50
90.0
 51
180.261
  0
ARC
  5
1E9
  8
0
  6
CONTINUOUS
 62
     3
 10
4838.3
 20
20742.7
 30
0.0
 40
25.0
 50
0.0
 51
83.1085
  0
ARC
  5
1EA
  8
0
  6
CONTINUOUS
 62
     3
 10
5183.28
 20
20451.2
 30
0.0
 40
162.5
 50
165.728
 51
194.264
  0
ARC
  5
1EB
  8
0
  6
CONTINUOUS
 62
     3
 10
5183.28
 20
20451.2
 30
0.0
 40
80.0
 50
108.199
 51
210.313
  0
ARC
  5
1EC
  8
0
  6
CONTINUOUS
 62
     3
 10
5122.77
 20
20196.0
 30
0.0
 40
99.9997
 50
337.017
 51
29.9994
  0
ARC
  5
1ED
  8
0
  6
CONTINUOUS
 62
     3
 10
5143.28
 20
20309.3
 30
0.0
 40
15.0
 50
254.259
 51
0.016788
  0
ARC
  5
1EE
  8
0
  6
CONTINUOUS
 62
     3
 10
5080.32
 20
20345.6
 30
0.0
 40
15.0001
 50
120.009
 51
225.708
  0
ARC
  5
1EF
  8
0
  6
CONTINUOUS
 62
     3
 10
5040.34
 20
20414.9
 30
0.0
 40
15.0
 50
194.26
 51
300.016
  0
ARC
  5
1F0
  8
0
  6
CONTINUOUS
 62
     3
 10
5183.28
 20
20451.2
 30
0.0
 40
162.5
 50
225.728
 51
254.264
  0
ARC
  5
1F1
  8
0
  6
CONTINUOUS
 62
     3
 10
5223.28
 20
20593.2
 30
0.0
 40
15.0
 50
74.259
 51
180.017
  0
ARC
  5
1F2
  8
0
  6
CONTINUOUS
 62
     3
 10
5183.28
 20
20451.2
 30
0.0
 40
202.5
 50
5.40282
 51
82.9069
  0
ARC
  5
1F3
  8
0
  6
CONTINUOUS
 62
     3
 10
5143.3
 20
20593.2
 30
0.0
 40
15.0
 50
0.009339
 51
105.708
  0
ARC
  5
1F4
  8
0
  6
CONTINUOUS
 62
     3
 10
5183.28
 20
20451.2
 30
0.0
 40
207.0
 50
80.8059
 51
83.0619
  0
ARC
  5
1F5
  8
0
  6
CONTINUOUS
 62
     3
 10
5080.34
 20
20556.8
 30
0.0
 40
14.9998
 50
134.259
 51
240.016
  0
ARC
  5
1F6
  8
0
  6
CONTINUOUS
 62
     3
 10
5040.34
 20
20487.6
 30
0.0
 40
15.0
 50
60.0098
 51
165.709
  0
ARC
  5
1F7
  8
0
  6
CONTINUOUS
 62
     3
 10
5183.28
 20
20451.2
 30
0.0
 40
162.5
 50
105.728
 51
134.264
  0
ARC
  5
1F8
  8
0
  6
CONTINUOUS
 62
     3
 10
5183.28
 20
20451.2
 30
0.0
 40
162.5
 50
11.6256
 51
14.2632
  0
ARC
  5
1F9
  8
0
  6
CONTINUOUS
 62
     3
 10
5326.24
 20
20487.6
 30
0.0
 40
15.0
 50
14.2599
 51
120.016
  0
ARC
  5
1FA
  8
0
  6
CONTINUOUS
 62
     3
 10
5286.25
 20
20556.8
 30
0.0
 40
15.0001
 50
300.009
 51
45.7082
  0
ARC
  5
1FB
  8
0
  6
CONTINUOUS
 62
     3
 10
5183.28
 20
20451.2
 30
0.0
 40
162.5
 50
45.7276
 51
74.2636
  0
ARC
  5
1FC
  8
0
  6
CONTINUOUS
 62
     3
 10
12278.9
 20
19751.3
 30
0.0
 40
60.0
 50
89.9963
 51
165.067
  0
ARC
  5
1FD
  8
0
  6
CONTINUOUS
 62
     3
 10
12000.4
 20
19590.2
 30
0.0
 40
30.0
 50
180.0
 51
256.228
  0
ARC
  5
1FE
  8
0
  6
CONTINUOUS
 62
     3
 10
6845.89
 20
6331.4
 30
0.0
 40
90.0002
 50
180.001
 51
206.565
  0
ARC
  5
1FF
  8
0
  6
CONTINUOUS
 62
     3
 10
7059.56
 20
5389.81
 30
0.0
 40
129.0
 50
206.565
 51
270.0
  0
CIRCLE
  5
200
  8
0
  6
CONTINUOUS
 62
     3
 10
7035.89
 20
5437.08
 30
0.0
 40
76.1999
  0
ARC
  5
201
  8
0
  6
CONTINUOUS
 62
     3
 10
7086.05
 20
5851.06
 30
0.0
 40
90.0005
 50
206.565
 51
270.0
  0
ARC
  5
202
  8
0
  6
CONTINUOUS
 62
     3
 10
7536.85
 20
5279.83
 30
0.0
 40
18.9999
 50
270.002
 51
330.0
  0
ARC
  5
204
  8
0
  6
CONTINUOUS
 62
     3
 10
7618.85
 20
5636.06
 30
0.0
 40
19.0001
 50
180.0
 51
270.001
  0
ARC
  5
205
  8
0
  6
CONTINUOUS
 62
     3
 10
7905.87
 20
5637.08
 30
0.0
 40
19.9998
 50
270.0
 51
0.000014
  0
ARC
  5
206
  8
0
  6
CONTINUOUS
 62
     3
 10
7618.89
 20
5838.1
 30
0.0
 40
18.9997
 50
90.0006
 51
180.0
  0
ARC
  5
207
  8
0
  6
CONTINUOUS
 62
     3
 10
7885.87
 20
5737.08
 30
0.0
 40
60.0001
 50
135.0
 51
270.0
  0
ARC
  5
208
  8
0
  6
CONTINUOUS
 62
     3
 10
7905.86
 20
5657.07
 30
0.0
 40
19.9998
 50
0.000014
 51
90.0003
  0
ARC
  5
209
  8
0
  6
CONTINUOUS
 62
     3
 10
6275.89
 20
6711.18
 30
0.0
 40
19.0001
 50
180.0
 51
206.565
  0
CIRCLE
  5
20A
  8
0
  6
CONTINUOUS
 62
     3
 10
6385.87
 20
6737.05
 30
0.0
 40
76.1999
  0
ARC
  5
20B
  8
0
  6
CONTINUOUS
 62
     3
 10
6845.88
 20
6517.07
 30
0.0
 40
90.0001
 50
90.0
 51
180.0
  0
ARC
  5
20C
  8
0
  6
CONTINUOUS
 62
     3
 10
7885.87
 20
6737.05
 30
0.0
 40
120.0
 50
270.0
 51
90.0
  0
CIRCLE
  5
20D
  8
0
  6
CONTINUOUS
 62
     3
 10
7885.87
 20
6737.05
 30
0.0
 40
50.0
  0
CIRCLE
  5
20E
  8
0
  6
CONTINUOUS
 62
     3
 10
15527.4
 20
5976.97
 30
0.0
 40
175.0
  0
CIRCLE
  5
20F
  8
0
  6
CONTINUOUS
 62
     3
 10
13497.4
 20
5976.97
 30
0.0
 40
100.0
  0
ARC
  5
210
  8
0
  6
CONTINUOUS
 62
     6
 10
21457.0
 20
5344.74
 30
0.0
 40
141.176
 50
358.4
 51
28.4
  0
ARC
  5
211
  8
0
  6
CONTINUOUS
 62
     6
 10
21521.2
 20
5321.02
 30
0.0
 40
149.343
 50
11.8
 51
50.2
  0
ARC
  5
212
  8
0
  6
CONTINUOUS
 62
     6
 10
21737.5
 20
5359.13
 30
0.0
 40
70.3936
 50
186.2
 51
55.2
  0
ARC
  5
213
  8
0
  6
CONTINUOUS
 62
     6
 10
21767.8
 20
5359.91
 30
0.0
 40
170.345
 50
200.3
 51
61.8
  0
ARC
  5
214
  8
0
  6
CONTINUOUS
 62
     6
 10
21714.1
 20
5349.41
 30
0.0
 40
116.285
 50
184.1
 51
204.6
  0
ARC
  5
215
  8
0
  6
CONTINUOUS
 62
     6
 10
22069.2
 20
5729.38
 30
0.0
 40
427.417
 50
213.9
 51
227.0
  0
ARC
  5
216
  8
0
  6
CONTINUOUS
 62
     6
 10
21853.7
 20
5570.31
 30
0.0
 40
160.233
 50
190.4
 51
209.6
  0
ARC
  5
217
  8
0
  6
CONTINUOUS
 62
     6
 10
21604.1
 20
5416.3
 30
0.0
 40
23.3349
 50
57.2
 51
191.6
  0
ARC
  5
218
  8
0
  6
CONTINUOUS
 62
     6
 10
21878.6
 20
5611.93
 30
0.0
 40
106.174
 50
221.6
 51
253.6
  0
ARC
  5
219
  8
0
  6
CONTINUOUS
 62
     6
 10
26832.5
 20
5738.74
 30
0.0
 40
180.0
 50
174.622
 51
225.033
  0
ARC
  5
21A
  8
0
  6
CONTINUOUS
 62
     6
 10
26805.5
 20
5741.66
 30
0.0
 40
62.9994
 50
167.204
 51
247.015
  0
ARC
  5
21B
  8
0
  6
CONTINUOUS
 62
     6
 10
26714.2
 20
5526.24
 30
0.0
 40
170.999
 50
0.03306
 51
67.0974
  0
ARC
  5
21C
  8
0
  6
CONTINUOUS
 62
     6
 10
26554.3
 20
5585.65
 30
0.0
 40
25.0
 50
37.0589
 51
208.19
  0
ARC
  5
21D
  8
0
  6
CONTINUOUS
 62
     6
 10
26697.6
 20
5530.73
 30
0.0
 40
62.5
 50
0.032945
 51
45.0336
  0
ARC
  5
21E
  8
0
  6
CONTINUOUS
 62
     6
 10
26395.1
 20
5405.4
 30
0.0
 40
265.0
 50
22.5007
 51
45.0331
  0
ARC
  5
21F
  8
0
  6
CONTINUOUS
 62
     6
 10
26714.2
 20
5509.73
 30
0.0
 40
155.0
 50
269.768
 51
284.901
  0
ARC
  5
220
  8
0
  6
CONTINUOUS
 62
     6
 10
26714.2
 20
5509.73
 30
0.0
 40
155.0
 50
188.363
 51
269.251
  0
ARC
  5
221
  8
0
  6
CONTINUOUS
 62
     6
 10
26298.6
 20
5448.65
 30
0.0
 40
264.999
 50
8.36312
 51
28.1901
  0
ARC
  5
222
  8
0
  6
CONTINUOUS
 62
     6
 10
26714.2
 20
5526.24
 30
0.0
 40
171.0
 50
283.481
 51
0.032945
  0
ARC
  5
223
  8
0
  6
CONTINUOUS
 62
     6
 10
26697.6
 20
5530.73
 30
0.0
 40
62.4997
 50
202.501
 51
267.189
  0
ARC
  5
224
  8
0
  6
CONTINUOUS
 62
     6
 10
26697.6
 20
5530.73
 30
0.0
 40
62.4999
 50
267.067
 51
0.032945
  0
CIRCLE
  5
225
  8
0
  6
CONTINUOUS
 62
     3
 10
12095.3
 20
19666.3
 30
0.0
 40
49.9999
  0
CIRCLE
  5
22A
  8
0
  6
CONTINUOUS
 62
     3
 10
37279.6
 20
19419.3
 30
0.0
 40
49.9999
  0
CIRCLE
  5
22D
  8
0
  6
CONTINUOUS
 62
     3
 10
27826.4
 20
13881.3
 30
0.0
 40
49.9999
  0
CIRCLE
  5
232
  8
0
  6
CONTINUOUS
 62
     3
 10
14853.4
 20
20340.3
 30
0.0
 40
57.5
  0
CIRCLE
  5
233
  8
0
  6
CONTINUOUS
 62
     3
 10
14853.4
 20
20340.3
 30
0.0
 40
76.2
  0
CIRCLE
  5
234
  8
0
  6
CONTINUOUS
 62
     3
 10
40037.7
 20
20093.3
 30
0.0
 40
76.2
  0
CIRCLE
  5
235
  8
0
  6
CONTINUOUS
 62
     3
 10
40037.7
 20
20093.3
 30
0.0
 40
57.5
  0
CIRCLE
  5
236
  8
0
  6
CONTINUOUS
 62
     3
 10
30584.4
 20
14555.4
 30
0.0
 40
57.5
  0
CIRCLE
  5
237
  8
0
  6
CONTINUOUS
 62
     3
 10
30584.4
 20
14555.4
 30
0.0
 40
76.2
  0
TEXT
  5
24B
  8
0
  6
CONTINUOUS
 62
     7
 10
7180.24
 20
22155.7
 30
0.0
 40
800.0
  1
B100141
 41
0.75
  0
TEXT
  5
24C
  8
0
  6
CONTINUOUS
 62
     7
 10
26930.9
 20
21920.7
 30
0.0
 40
800.0
  1
B100142
 41
0.75
  0
TEXT
  5
24D
  8
0
  6
CONTINUOUS
 62
     7
 10
13058.4
 20
16422.3
 30
0.0
 40
800.0
  1
B100143
 41
0.75
  0
TEXT
  5
24E
  8
0
  6
CONTINUOUS
 62
     7
 10
6474.86
 20
8762.14
 30
0.0
 40
800.0
  1
B100144
 41
0.75
  0
TEXT
  5
24F
  8
0
  6
CONTINUOUS
 62
     7
 10
12600.4
 20
8668.15
 30
0.0
 40
800.0
  1
B100145
 41
0.75
  0
TEXT
  5
250
  8
0
  6
CONTINUOUS
 62
     7
 10
34361.425502
 20
6535.090931
 30
0.0
 40
560.0
  1
AR200111B,AR200211B
 41
0.75
  0
TEXT
  5
251
  8
0
  6
CONTINUOUS
 62
     7
 10
34379.251099
 20
5733.187306
 30
0.0
 40
560.0
  1
AR-2000M
 41
0.75
  0
TEXT
  5
252
  8
0
  6
CONTINUOUS
 62
     7
 10
34434.751099
 20
4937.557306
 30
0.0
 40
560.0
  1
FLJ
 41
0.75
  0
TEXT
  5
253
  8
0
  6
CONTINUOUS
 62
     7
 10
29867.025502
 20
5753.330931
 30
0.0
 40
640.0
  1
ï@ü@ü@ü@ÄÝ
  0
TEXT
  5
254
  8
0
  6
CONTINUOUS
 62
     7
 10
29885.525502
 20
6567.460931
 30
0.0
 40
640.0
  1
âtâ@âCâïû╝
  0
TEXT
  5
255
  8
0
  6
CONTINUOUS
 62
     7
 10
29848.425502
 20
4883.700931
 30
0.0
 40
640.0
  1
âXâyâbâN
  0
TEXT
  5
256
  8
0
  6
CONTINUOUS
 62
     7
 10
19271.8
 20
8668.15
 30
0.0
 40
800.0
  1
B160114
 41
0.75
  0
TEXT
  5
257
  8
0
  6
CONTINUOUS
 62
     7
 10
24779.0
 20
8668.15
 30
0.0
 40
800.0
  1
B090115
 41
0.75
  0
TEXT
  5
258
  8
0
  6
CONTINUOUS
 62
     6
 10
21780.0
 20
5251.23
 30
0.0
 40
30.0
  1
25t
 41
0.75
  0
POINT
  5
262
  8
ô_
 62
     1
 10
12095.3
 20
19666.3
 30
0.0
  0
POINT
  5
263
  8
ô_
 62
     1
 10
14853.4
 20
20340.3
 30
0.0
  0
POINT
  5
265
  8
ô_
 62
     1
 10
37279.6
 20
19419.3
 30
0.0
  0
POINT
  5
267
  8
ô_
 62
     1
 10
40037.7
 20
20093.3
 30
0.0
  0
POINT
  5
268
  8
ô_
 62
     1
 10
27826.4
 20
13881.3
 30
0.0
  0
POINT
  5
269
  8
ô_
 62
     1
 10
30584.4
 20
14555.4
 30
0.0
  0
POINT
  5
26A
  8
ô_
 62
     1
 10
6385.9
 20
6737.07
 30
0.0
  0
POINT
  5
26B
  8
ô_
 62
     1
 10
7885.9
 20
6737.08
 30
0.0
  0
POINT
  5
26C
  8
ô_
 62
     1
 10
7885.89
 20
5737.14
 30
0.0
  0
POINT
  5
26D
  8
ô_
 62
     1
 10
7035.89
 20
5437.08
 30
0.0
  0
POINT
  5
26E
  8
ô_
 62
     1
 10
13497.4
 20
5976.97
 30
0.0
  0
POINT
  5
26F
  8
ô_
 62
     1
 10
15527.4
 20
5976.96
 30
0.0
  0
POINT
  5
270
  8
ô_
 10
21737.8
 20
6196.85
 30
0.0
  0
POINT
  5
271
  8
ô_
 10
26697.6
 20
6185.61
 30
0.0
  0
TEXT
  8
0
  40
360
  5
AA6
  62
7
  72
0
  71
0
 10
29427.3
 20
9630.56
 30
0.000000
  1
ALL RIGHTS RESERVED,COPYRIGHT(C) TADANOSYSTEMS INC.
  0
LINE
  5
A1C
  8
0
  6
CONTINUOUS
 62
     7
 10
32215.150375
 20
9196.751892
 30
0.0
 11
32215.150375
 21
8566.751892
 31
0.0
  0
LINE
  5
A1D
  8
0
  6
CONTINUOUS
 62
     7
 10
30451.150375
 20
9196.751892
 30
0.0
 11
30451.150375
 21
8251.751892
 31
0.0
  0
LINE
  5
A1E
  8
0
  6
CONTINUOUS
 62
     7
 10
30451.150375
 20
8251.751892
 30
0.0
 11
31679.650375
 21
9196.751892
 31
0.0
  0
LINE
  5
A1F
  8
0
  6
CONTINUOUS
 62
     7
 10
30766.150375
 20
7936.751892
 30
0.0
 11
31711.150375
 21
9196.751892
 31
0.0
  0
LINE
  5
A20
  8
0
  6
CONTINUOUS
 62
     7
 10
30766.150375
 20
7936.751892
 30
0.0
 11
31711.150375
 21
7936.751892
 31
0.0
  0
LINE
  5
A21
  8
0
  6
CONTINUOUS
 62
     7
 10
31711.150375
 20
8566.751892
 30
0.0
 11
31711.150375
 21
7936.751892
 31
0.0
  0
LINE
  5
A22
  8
0
  6
CONTINUOUS
 62
     7
 10
31711.150375
 20
8566.751892
 30
0.0
 11
32215.150375
 21
8566.751892
 31
0.0
  0
LINE
  5
A23
  8
0
  6
CONTINUOUS
 62
     7
 10
30451.150375
 20
9196.751892
 30
0.0
 11
31679.650375
 21
9196.751892
 31
0.0
  0
LINE
  5
A24
  8
0
  6
CONTINUOUS
 62
     7
 10
31711.150375
 20
9196.751892
 30
0.0
 11
32215.150375
 21
9196.751892
 31
0.0
  0
LINE
  5
A25
  8
0
  6
CONTINUOUS
 62
     7
 10
34562.710375
 20
8566.751892
 30
0.0
 11
34768.540375
 21
8566.751892
 31
0.0
  0
LINE
  5
A26
  8
0
  6
CONTINUOUS
 62
     7
 10
34562.710375
 20
8566.751892
 30
0.0
 11
34790.680375
 21
9196.751892
 31
0.0
  0
LINE
  5
A27
  8
0
  6
CONTINUOUS
 62
     7
 10
34201.720375
 20
9041.591892
 30
0.0
 11
34201.720375
 21
8724.971892
 31
0.0
  0
ARC
  5
A28
  8
0
  6
CONTINUOUS
 62
     7
 10
34163.740375
 20
8881.751892
 30
0.0
 40
240.6195
 50
340.276
 51
22.213
  0
ARC
  5
A29
  8
0
  6
CONTINUOUS
 62
     7
 10
34176.430375
 20
8881.751892
 30
0.0
 40
414.7515
 50
341.626
 51
23.9327
  0
LINE
  5
A2A
  8
0
  6
CONTINUOUS
 62
     7
 10
33659.560375
 20
8944.211892
 30
0.0
 11
33706.540375
 21
8791.481892
 31
0.0
  0
LINE
  5
A2B
  8
0
  6
CONTINUOUS
 62
     7
 10
33632.740375
 20
8944.211892
 30
0.0
 11
33585.580375
 21
8791.481892
 31
0.0
  0
LINE
  5
A2C
  8
0
  6
CONTINUOUS
 62
     7
 10
33020.920375
 20
9025.751892
 30
0.0
 11
33020.920375
 21
8566.751892
 31
0.0
  0
LINE
  5
A2D
  8
0
  6
CONTINUOUS
 62
     7
 10
34015.060375
 20
9196.751892
 30
0.0
 11
34015.060375
 21
8566.751892
 31
0.0
  0
LINE
  5
A2E
  8
0
  6
CONTINUOUS
 62
     7
 10
33753.790375
 20
9196.751892
 30
0.0
 11
33981.760375
 21
8566.751892
 31
0.0
  0
LINE
  5
A2F
  8
0
  6
CONTINUOUS
 62
     7
 10
33538.510375
 20
9196.751892
 30
0.0
 11
33310.540375
 21
8566.751892
 31
0.0
  0
LINE
  5
A30
  8
0
  6
CONTINUOUS
 62
     7
 10
33220.360375
 20
9025.751892
 30
0.0
 11
33220.360375
 21
8566.751892
 31
0.0
  0
LINE
  5
A31
  8
0
  6
CONTINUOUS
 62
     7
 10
33544.630375
 20
8658.551892
 30
0.0
 11
33516.280375
 21
8566.751892
 31
0.0
  0
LINE
  5
A32
  8
0
  6
CONTINUOUS
 62
     7
 10
33020.920375
 20
8566.751892
 30
0.0
 11
33220.360375
 21
8566.751892
 31
0.0
  0
LINE
  5
A33
  8
0
  6
CONTINUOUS
 62
     7
 10
33310.540375
 20
8566.751892
 30
0.0
 11
33516.280375
 21
8566.751892
 31
0.0
  0
LINE
  5
A34
  8
0
  6
CONTINUOUS
 62
     7
 10
34015.060375
 20
8566.751892
 30
0.0
 11
34314.670375
 21
8566.751892
 31
0.0
  0
LINE
  5
A35
  8
0
  6
CONTINUOUS
 62
     7
 10
33585.580375
 20
8791.481892
 30
0.0
 11
33706.540375
 21
8791.481892
 31
0.0
  0
LINE
  5
A36
  8
0
  6
CONTINUOUS
 62
     7
 10
33544.630375
 20
8658.551892
 30
0.0
 11
33747.670375
 21
8658.551892
 31
0.0
  0
LINE
  5
A37
  8
0
  6
CONTINUOUS
 62
     7
 10
33775.840375
 20
8566.751892
 30
0.0
 11
33981.760375
 21
8566.751892
 31
0.0
  0
LINE
  5
A38
  8
0
  6
CONTINUOUS
 62
     7
 10
33747.670375
 20
8658.551892
 30
0.0
 11
33775.840375
 21
8566.751892
 31
0.0
  0
LINE
  5
A39
  8
0
  6
CONTINUOUS
 62
     7
 10
34201.720375
 20
8724.971892
 30
0.0
 11
34282.990375
 21
8724.971892
 31
0.0
  0
ARC
  5
A3A
  8
0
  6
CONTINUOUS
 62
     7
 10
34282.990375
 20
8839.001892
 30
0.0
 40
113.9787
 50
270.0
 51
340.276
  0
ARC
  5
A3B
  8
0
  6
CONTINUOUS
 62
     7
 10
34314.670375
 20
8835.851892
 30
0.0
 40
269.1135
 50
270.0
 51
341.626
  0
LINE
  5
A3C
  8
0
  6
CONTINUOUS
 62
     7
 10
32845.150375
 20
9196.751892
 30
0.0
 11
33395.950375
 21
9196.751892
 31
0.0
  0
LINE
  5
A3D
  8
0
  6
CONTINUOUS
 62
     7
 10
32845.150375
 20
9025.751892
 30
0.0
 11
33020.920375
 21
9025.751892
 31
0.0
  0
LINE
  5
A3E
  8
0
  6
CONTINUOUS
 62
     7
 10
32845.150375
 20
9196.751892
 30
0.0
 11
32845.150375
 21
9025.751892
 31
0.0
  0
LINE
  5
A3F
  8
0
  6
CONTINUOUS
 62
     7
 10
33395.950375
 20
9196.751892
 30
0.0
 11
33395.950375
 21
9025.751892
 31
0.0
  0
LINE
  5
A40
  8
0
  6
CONTINUOUS
 62
     7
 10
33220.360375
 20
9025.751892
 30
0.0
 11
33395.950375
 21
9025.751892
 31
0.0
  0
LINE
  5
A41
  8
0
  6
CONTINUOUS
 62
     7
 10
34015.060375
 20
9196.751892
 30
0.0
 11
34329.790375
 21
9196.751892
 31
0.0
  0
ARC
  5
A42
  8
0
  6
CONTINUOUS
 62
     7
 10
33975.370375
 20
9041.591892
 30
0.0
 40
330.5133
 50
188.261
 51
197.133
  0
ARC
  5
A43
  8
0
  6
CONTINUOUS
 62
     7
 10
33316.840375
 20
9041.591892
 30
0.0
 40
330.5142
 50
342.867
 51
351.73902
  0
LINE
  5
A44
  8
0
  6
CONTINUOUS
 62
     7
 10
33643.990375
 20
8994.161892
 30
0.0
 11
33648.400375
 21
8994.161892
 31
0.0
  0
LINE
  5
A45
  8
0
  6
CONTINUOUS
 62
     7
 10
33538.510375
 20
9196.751892
 30
0.0
 11
33753.790375
 21
9196.751892
 31
0.0
  0
ARC
  5
A46
  8
0
  6
CONTINUOUS
 62
     7
 10
34283.890375
 20
8930.711892
 30
0.0
 40
110.8107
 50
22.2133
 51
90.0
  0
LINE
  5
A47
  8
0
  6
CONTINUOUS
 62
     7
 10
34201.720375
 20
9041.591892
 30
0.0
 11
34283.890375
 21
9041.591892
 31
0.0
  0
ARC
  5
A48
  8
0
  6
CONTINUOUS
 62
     7
 10
34329.790375
 20
8949.791892
 30
0.0
 40
246.9528
 50
23.9328
 51
90.0
  0
ARC
  5
A49
  8
0
  6
CONTINUOUS
 62
     7
 10
36041.230375
 20
8881.751892
 30
0.0
 40
319.77
 50
345.311
 51
14.6886
  0
ARC
  5
A4A
  8
0
  6
CONTINUOUS
 62
     7
 10
36443.260375
 20
8881.751892
 30
0.0
 40
319.77
 50
165.132
 51
194.869
  0
ARC
  5
A4B
  8
0
  6
CONTINUOUS
 62
     7
 10
36182.080375
 20
8881.751892
 30
0.0
 40
379.9269
 50
332.938
 51
27.062
  0
ARC
  5
A4C
  8
0
  6
CONTINUOUS
 62
     7
 10
35042.320375
 20
8867.531892
 30
0.0
 40
405.2547
 50
0.0
 51
6.7299
  0
ARC
  5
A4D
  8
0
  6
CONTINUOUS
 62
     7
 10
36007.930375
 20
9196.751892
 30
0.0
 40
626.6268
 50
206.723
 51
211.578
  0
ARC
  5
A4E
  8
0
  6
CONTINUOUS
 62
     7
 10
36071.380375
 20
8895.971892
 30
0.0
 40
405.2547
 50
180.0
 51
186.73
  0
ARC
  5
A4F
  8
0
  6
CONTINUOUS
 62
     7
 10
35105.680375
 20
8566.751892
 30
0.0
 40
626.6241
 50
26.7228
 51
31.5781
  0
LINE
  5
A50
  8
0
  6
CONTINUOUS
 62
     7
 10
34884.910375
 20
8944.211892
 30
0.0
 11
34837.840375
 21
8791.481892
 31
0.0
  0
LINE
  5
A51
  8
0
  6
CONTINUOUS
 62
     7
 10
34911.730375
 20
8944.211892
 30
0.0
 11
34958.800375
 21
8791.481892
 31
0.0
  0
ARC
  5
A52
  8
0
  6
CONTINUOUS
 62
     7
 10
36302.410375
 20
8881.751892
 30
0.0
 40
379.9269
 50
152.861
 51
207.131
  0
LINE
  5
A53
  8
0
  6
CONTINUOUS
 62
     7
 10
35005.870375
 20
9196.751892
 30
0.0
 11
35233.930375
 21
8566.751892
 31
0.0
  0
LINE
  5
A54
  8
0
  6
CONTINUOUS
 62
     7
 10
35267.050375
 20
9196.751892
 30
0.0
 11
35267.050375
 21
8566.751892
 31
0.0
  0
LINE
  5
A55
  8
0
  6
CONTINUOUS
 62
     7
 10
35846.560375
 20
9196.751892
 30
0.0
 11
35846.560375
 21
8566.751892
 31
0.0
  0
LINE
  5
A56
  8
0
  6
CONTINUOUS
 62
     7
 10
35267.050375
 20
8566.751892
 30
0.0
 11
35447.680375
 21
8566.751892
 31
0.0
  0
LINE
  5
A57
  8
0
  6
CONTINUOUS
 62
     7
 10
34837.840375
 20
8791.481892
 30
0.0
 11
34958.800375
 21
8791.481892
 31
0.0
  0
LINE
  5
A58
  8
0
  6
CONTINUOUS
 62
     7
 10
34796.710375
 20
8658.551892
 30
0.0
 11
34999.840375
 21
8658.551892
 31
0.0
  0
LINE
  5
A59
  8
0
  6
CONTINUOUS
 62
     7
 10
35028.100375
 20
8566.751892
 30
0.0
 11
35233.930375
 21
8566.751892
 31
0.0
  0
LINE
  5
A5A
  8
0
  6
CONTINUOUS
 62
     7
 10
34796.710375
 20
8658.551892
 30
0.0
 11
34768.540375
 21
8566.751892
 31
0.0
  0
LINE
  5
A5B
  8
0
  6
CONTINUOUS
 62
     7
 10
34999.840375
 20
8658.551892
 30
0.0
 11
35028.100375
 21
8566.751892
 31
0.0
  0
LINE
  5
A5C
  8
0
  6
CONTINUOUS
 62
     7
 10
35665.390375
 20
8848.451892
 30
0.0
 11
35668.900375
 21
8848.451892
 31
0.0
  0
LINE
  5
A5D
  8
0
  6
CONTINUOUS
 62
     7
 10
35659.720375
 20
8566.751892
 30
0.0
 11
35846.560375
 21
8566.751892
 31
0.0
  0
LINE
  5
A5E
  8
0
  6
CONTINUOUS
 62
     7
 10
35474.140375
 20
8868.611892
 30
0.0
 11
35659.720375
 21
8566.751892
 31
0.0
  0
LINE
  5
A5F
  8
0
  6
CONTINUOUS
 62
     7
 10
35447.680375
 20
8867.531892
 30
0.0
 11
35447.680375
 21
8566.751892
 31
0.0
  0
ARC
  5
A60
  8
0
  6
CONTINUOUS
 62
     7
 10
36242.290375
 20
8829.101892
 30
0.0
 40
111.9357
 50
195.203
 51
345.311
  0
ARC
  5
A61
  8
0
  6
CONTINUOUS
 62
     7
 10
36242.290375
 20
8932.331892
 30
0.0
 40
379.9269
 50
252.699
 51
287.263
  0
ARC
  5
A62
  8
0
  6
CONTINUOUS
 62
     7
 10
36212.230375
 20
8835.581892
 30
0.0
 40
278.6112
 50
206.967
 51
252.685
  0
ARC
  5
A63
  8
0
  6
CONTINUOUS
 62
     7
 10
36272.350375
 20
8835.581892
 30
0.0
 40
278.6139
 50
287.263
 51
332.938
  0
LINE
  5
A64
  8
0
  6
CONTINUOUS
 62
     7
 10
35267.050375
 20
9196.751892
 30
0.0
 11
35453.980375
 21
9196.751892
 31
0.0
  0
ARC
  5
A65
  8
0
  6
CONTINUOUS
 62
     7
 10
34569.010375
 20
9041.591892
 30
0.0
 40
330.5142
 50
342.867
 51
351.73902
  0
ARC
  5
A66
  8
0
  6
CONTINUOUS
 62
     7
 10
35227.540375
 20
9041.591892
 30
0.0
 40
330.5133
 50
188.261
 51
197.133
  0
LINE
  5
A67
  8
0
  6
CONTINUOUS
 62
     7
 10
34896.160375
 20
8994.161892
 30
0.0
 11
34900.390375
 21
8994.161892
 31
0.0
  0
LINE
  5
A68
  8
0
  6
CONTINUOUS
 62
     7
 10
34790.680375
 20
9196.751892
 30
0.0
 11
35005.870375
 21
9196.751892
 31
0.0
  0
LINE
  5
A69
  8
0
  6
CONTINUOUS
 62
     7
 10
35453.980375
 20
9196.751892
 30
0.0
 11
35639.560375
 21
8894.801892
 31
0.0
  0
LINE
  5
A6A
  8
0
  6
CONTINUOUS
 62
     7
 10
35444.710375
 20
8914.961892
 30
0.0
 11
35448.310375
 21
8914.961892
 31
0.0
  0
LINE
  5
A6B
  8
0
  6
CONTINUOUS
 62
     7
 10
35666.020375
 20
9196.751892
 30
0.0
 11
35666.020375
 21
8895.971892
 31
0.0
  0
LINE
  5
A6C
  8
0
  6
CONTINUOUS
 62
     7
 10
35666.020375
 20
9196.751892
 30
0.0
 11
35846.560375
 21
9196.751892
 31
0.0
  0
ARC
  5
A6D
  8
0
  6
CONTINUOUS
 62
     7
 10
36212.230375
 20
8927.831892
 30
0.0
 40
278.6139
 50
107.346
 51
153.043
  0
ARC
  5
A6E
  8
0
  6
CONTINUOUS
 62
     7
 10
36242.290375
 20
8934.401892
 30
0.0
 40
111.9348
 50
14.6894
 51
164.799
  0
ARC
  5
A6F
  8
0
  6
CONTINUOUS
 62
     7
 10
36242.290375
 20
8831.081892
 30
0.0
 40
379.9269
 50
72.7367
 51
107.323
  0
ARC
  5
A70
  8
0
  6
CONTINUOUS
 62
     7
 10
36272.350375
 20
8927.831892
 30
0.0
 40
278.6121
 50
27.0618
 51
72.7366
  0
LINE
  5
A7B
  8
0
  6
CONTINUOUS
 62
     7
 10
33243.734587
 20
20075.880807
 30
0.0
 11
33394.934587
 21
20075.880807
 31
0.0
  0
LINE
  5
A7C
  8
0
  6
CONTINUOUS
 62
     7
 10
33243.734587
 20
19886.880807
 30
0.0
 11
33394.934587
 21
19886.880807
 31
0.0
  0
LINE
  5
A7D
  8
0
  6
CONTINUOUS
 62
     7
 10
33243.734587
 20
19886.880807
 30
0.0
 11
33243.734587
 21
19697.880807
 31
0.0
  0
LINE
  5
A7E
  8
0
  6
CONTINUOUS
 62
     7
 10
32960.234587
 20
19697.880807
 30
0.0
 11
33243.734587
 21
20075.880807
 31
0.0
  0
LINE
  5
A7F
  8
0
  6
CONTINUOUS
 62
     7
 10
32865.734587
 20
19792.380807
 30
0.0
 11
33234.284587
 21
20075.880807
 31
0.0
  0
LINE
  5
A80
  8
0
  6
CONTINUOUS
 62
     7
 10
32865.734587
 20
20075.880807
 30
0.0
 11
32865.734587
 21
19792.380807
 31
0.0
  0
LINE
  5
A81
  8
0
  6
CONTINUOUS
 62
     7
 10
32960.234587
 20
19697.880807
 30
0.0
 11
33243.734587
 21
19697.880807
 31
0.0
  0
LINE
  5
A82
  8
0
  6
CONTINUOUS
 62
     7
 10
32865.734587
 20
20075.880807
 30
0.0
 11
33234.284587
 21
20075.880807
 31
0.0
  0
LINE
  5
A83
  8
0
  6
CONTINUOUS
 62
     7
 10
33394.934587
 20
20075.880807
 30
0.0
 11
33394.934587
 21
19886.880807
 31
0.0
  0
LINE
  5
A84
  8
0
  6
CONTINUOUS
 62
     7
 10
8210.632466
 20
20322.880807
 30
0.0
 11
8210.632466
 21
20133.880807
 31
0.0
  0
LINE
  5
A85
  8
0
  6
CONTINUOUS
 62
     7
 10
7681.432466
 20
20322.880807
 30
0.0
 11
7681.432466
 21
20039.380807
 31
0.0
  0
LINE
  5
A86
  8
0
  6
CONTINUOUS
 62
     7
 10
7681.432466
 20
20039.380807
 30
0.0
 11
8049.982466
 21
20322.880807
 31
0.0
  0
LINE
  5
A87
  8
0
  6
CONTINUOUS
 62
     7
 10
7775.932466
 20
19944.880807
 30
0.0
 11
8059.432466
 21
20322.880807
 31
0.0
  0
LINE
  5
A88
  8
0
  6
CONTINUOUS
 62
     7
 10
7775.932466
 20
19944.880807
 30
0.0
 11
8059.432466
 21
19944.880807
 31
0.0
  0
LINE
  5
A89
  8
0
  6
CONTINUOUS
 62
     7
 10
8059.432466
 20
20133.880807
 30
0.0
 11
8059.432466
 21
19944.880807
 31
0.0
  0
LINE
  5
A8A
  8
0
  6
CONTINUOUS
 62
     7
 10
8059.432466
 20
20133.880807
 30
0.0
 11
8210.632466
 21
20133.880807
 31
0.0
  0
LINE
  5
A8B
  8
0
  6
CONTINUOUS
 62
     7
 10
7681.432466
 20
20322.880807
 30
0.0
 11
8049.982466
 21
20322.880807
 31
0.0
  0
LINE
  5
A8C
  8
0
  6
CONTINUOUS
 62
     7
 10
8059.432466
 20
20322.880807
 30
0.0
 11
8210.632466
 21
20322.880807
 31
0.0
  0
LINE
  5
A8D
  8
0
  6
CONTINUOUS
 62
     7
 10
23941.702466
 20
14537.880807
 30
0.0
 11
23941.702466
 21
14348.880807
 31
0.0
  0
LINE
  5
A8E
  8
0
  6
CONTINUOUS
 62
     7
 10
23412.502466
 20
14537.880807
 30
0.0
 11
23412.502466
 21
14254.380807
 31
0.0
  0
LINE
  5
A8F
  8
0
  6
CONTINUOUS
 62
     7
 10
23412.502466
 20
14254.380807
 30
0.0
 11
23781.052466
 21
14537.880807
 31
0.0
  0
LINE
  5
A90
  8
0
  6
CONTINUOUS
 62
     7
 10
23507.002466
 20
14159.880807
 30
0.0
 11
23790.502466
 21
14537.880807
 31
0.0
  0
LINE
  5
A91
  8
0
  6
CONTINUOUS
 62
     7
 10
23507.002466
 20
14159.880807
 30
0.0
 11
23790.502466
 21
14159.880807
 31
0.0
  0
LINE
  5
A92
  8
0
  6
CONTINUOUS
 62
     7
 10
23790.502466
 20
14348.880807
 30
0.0
 11
23790.502466
 21
14159.880807
 31
0.0
  0
LINE
  5
A93
  8
0
  6
CONTINUOUS
 62
     7
 10
23790.502466
 20
14348.880807
 30
0.0
 11
23941.702466
 21
14348.880807
 31
0.0
  0
LINE
  5
A94
  8
0
  6
CONTINUOUS
 62
     7
 10
23412.502466
 20
14537.880807
 30
0.0
 11
23781.052466
 21
14537.880807
 31
0.0
  0
LINE
  5
A95
  8
0
  6
CONTINUOUS
 62
     7
 10
23790.502466
 20
14537.880807
 30
0.0
 11
23941.702466
 21
14537.880807
 31
0.0
  0
ENDSEC
  0
EOF
