  0
SECTION
  2
HEADER
  9
$ACADVER
  1
AC1009
  9
$INSBASE
 10
0.0
 20
0.0
 30
0.0
  9
$EXTMIN
 10
3221.282648
 20
-1455.390932
 30
0.0
  9
$EXTMAX
 10
36924.449913
 20
27504.5
 30
0.0
  9
$LIMMIN
 10
-436.206819
 20
-427.362894
  9
$LIMMAX
 10
37582.134766
 20
26704.469141
  9
$ORTHOMODE
 70
     0
  9
$REGENMODE
 70
     1
  9
$FILLMODE
 70
     1
  9
$QTEXTMODE
 70
     0
  9
$MIRRTEXT
 70
     1
  9
$DRAGMODE
 70
     2
  9
$LTSCALE
 40
1.0
  9
$OSMODE
 70
     8
  9
$ATTMODE
 70
     1
  9
$TEXTSIZE
 40
3.15
  9
$TRACEWID
 40
0.05
  9
$TEXTSTYLE
  7
STANDARD
  9
$CLAYER
  8
ô_
  9
$CELTYPE
  6
BYLAYER
  9
$CECOLOR
 62
     2
  9
$DIMSCALE
 40
1.0
  9
$DIMASZ
 40
4.2
  9
$DIMEXO
 40
1.5625
  9
$DIMDLI
 40
9.5
  9
$DIMRND
 40
0.0
  9
$DIMDLE
 40
0.0
  9
$DIMEXE
 40
4.5
  9
$DIMTP
 40
0.0
  9
$DIMTM
 40
0.0
  9
$DIMTXT
 40
3.15
  9
$DIMCEN
 40
2.25
  9
$DIMTSZ
 40
0.0
  9
$DIMTOL
 70
     0
  9
$DIMLIM
 70
     0
  9
$DIMTIH
 70
     1
  9
$DIMTOH
 70
     1
  9
$DIMSE1
 70
     0
  9
$DIMSE2
 70
     0
  9
$DIMTAD
 70
     0
  9
$DIMZIN
 70
     0
  9
$DIMBLK
  1

  9
$DIMASO
 70
     1
  9
$DIMSHO
 70
     0
  9
$DIMPOST
  1

  9
$DIMAPOST
  1

  9
$DIMALT
 70
     0
  9
$DIMALTD
 70
     2
  9
$DIMALTF
 40
25.4
  9
$DIMLFAC
 40
1.0
  9
$DIMTOFL
 70
     0
  9
$DIMTVP
 40
0.0
  9
$DIMTIX
 70
     0
  9
$DIMSOXD
 70
     0
  9
$DIMSAH
 70
     0
  9
$DIMBLK1
  1

  9
$DIMBLK2
  1

  9
$DIMSTYLE
  2
STANDARD
  9
$DIMCLRD
 70
     0
  9
$DIMCLRE
 70
     0
  9
$DIMCLRT
 70
     0
  9
$DIMTFAC
 40
1.0
  9
$DIMGAP
 40
0.09
  9
$LUNITS
 70
     2
  9
$LUPREC
 70
     4
  9
$SKETCHINC
 40
0.1
  9
$FILLETRAD
 40
0.0
  9
$AUNITS
 70
     0
  9
$AUPREC
 70
     0
  9
$MENU
  1
acad
  9
$ELEVATION
 40
0.0
  9
$PELEVATION
 40
0.0
  9
$THICKNESS
 40
0.0
  9
$LIMCHECK
 70
     0
  9
$BLIPMODE
 70
     1
  9
$CHAMFERA
 40
0.0
  9
$CHAMFERB
 40
0.0
  9
$SKPOLY
 70
     0
  9
$TDCREATE
 40
2451556.385417
  9
$TDUPDATE
 40
2451814.38729
  9
$TDINDWG
 40
0.088836
  9
$TDUSRTIMER
 40
0.088836
  9
$USRTIMER
 70
     1
  9
$ANGBASE
 50
0.0
  9
$ANGDIR
 70
     0
  9
$PDMODE
 70
    35
  9
$PDSIZE
 40
0.0
  9
$PLINEWID
 40
0.0
  9
$COORDS
 70
     0
  9
$SPLFRAME
 70
     0
  9
$SPLINETYPE
 70
     6
  9
$SPLINESEGS
 70
     8
  9
$ATTDIA
 70
     0
  9
$ATTREQ
 70
     1
  9
$HANDLING
 70
     1
  9
$HANDSEED
  5
1DCD
  9
$SURFTAB1
 70
     6
  9
$SURFTAB2
 70
     6
  9
$SURFTYPE
 70
     6
  9
$SURFU
 70
     6
  9
$SURFV
 70
     6
  9
$UCSNAME
  2

  9
$UCSORG
 10
0.0
 20
0.0
 30
0.0
  9
$UCSXDIR
 10
1.0
 20
0.0
 30
0.0
  9
$UCSYDIR
 10
0.0
 20
1.0
 30
0.0
  9
$PUCSNAME
  2

  9
$PUCSORG
 10
0.0
 20
0.0
 30
0.0
  9
$PUCSXDIR
 10
1.0
 20
0.0
 30
0.0
  9
$PUCSYDIR
 10
0.0
 20
1.0
 30
0.0
  9
$USERI1
 70
     0
  9
$USERI2
 70
     0
  9
$USERI3
 70
     0
  9
$USERI4
 70
     0
  9
$USERI5
 70
     0
  9
$USERR1
 40
0.0
  9
$USERR2
 40
0.0
  9
$USERR3
 40
0.0
  9
$USERR4
 40
0.0
  9
$USERR5
 40
0.0
  9
$WORLDVIEW
 70
     1
  9
$SHADEDGE
 70
     3
  9
$SHADEDIF
 70
    70
  9
$TILEMODE
 70
     1
  9
$MAXACTVP
 70
    48
  9
$PLIMCHECK
 70
     0
  9
$PEXTMIN
 10
1.000000E+020
 20
1.000000E+020
 30
1.000000E+020
  9
$PEXTMAX
 10
-1.000000E+020
 20
-1.000000E+020
 30
-1.000000E+020
  9
$PLIMMIN
 10
0.0
 20
0.0
  9
$PLIMMAX
 10
12.0
 20
9.0
  9
$UNITMODE
 70
     0
  9
$VISRETAIN
 70
     1
  9
$PLINEGEN
 70
     0
  9
$PSLTSCALE
 70
     1
  0
ENDSEC
  0
SECTION
  2
TABLES
  0
TABLE
  2
VPORT
 70
     2
  0
VPORT
  2
*ACTIVE
 70
     0
 10
0.0
 20
0.0
 11
1.0
 21
1.0
 12
20059.505817
 22
13024.554601
 13
0.0
 23
0.0
 14
1.0
 24
1.0
 15
0.0
 25
0.0
 16
0.0
 26
0.0
 36
1.0
 17
0.0
 27
0.0
 37
0.0
 40
29292.648886
 41
1.765267
 42
50.0
 43
0.0
 44
0.0
 50
0.0
 51
0.0
 71
     0
 72
   100
 73
     1
 74
     1
 75
     0
 76
     0
 77
     0
 78
     0
  0
ENDTAB
  0
TABLE
  2
LTYPE
 70
     1
  0
LTYPE
  2
CONTINUOUS
 70
     0
  3
Solid line
 72
    65
 73
     0
 40
0.0
  0
ENDTAB
  0
TABLE
  2
LAYER
 70
     2
  0
LAYER
  2
0
 70
     0
 62
     7
  6
CONTINUOUS
  0
LAYER
  2
ô_
 70
     0
 62
     1
  6
CONTINUOUS
  0
ENDTAB
  0
TABLE
  2
STYLE
 70
     1
  0
STYLE
  2
STANDARD
 70
     0
 40
0.0
 41
0.7
 50
0.0
 71
     0
 42
2.8
  3
txt
  4
bigfont
  0
ENDTAB
  0
TABLE
  2
VIEW
 70
     0
  0
ENDTAB
  0
TABLE
  2
UCS
 70
     0
  0
ENDTAB
  0
TABLE
  2
APPID
 70
     5
  0
APPID
  2
ACAD
 70
     0
  0
APPID
  2
CONTENTBLOCKICON
 70
     0
  0
APPID
  2
CONTENTBLOCKDESCRIPTION
 70
     0
  0
APPID
  2
CONTENTTABDATA
 70
     0
  0
APPID
  2
CONTENTCURRENTTAB
 70
     0
  0
ENDTAB
  0
TABLE
  2
DIMSTYLE
 70
     1
  0
DIMSTYLE
  2
STANDARD
 70
     0
  3

  4

  5

  6

  7

 40
1.0
 41
0.18
 42
0.0625
 43
0.38
 44
0.18
 45
0.0
 46
0.0
 47
0.0
 48
0.0
140
0.18
141
0.09
142
0.0
143
25.4
144
1.0
145
0.0
146
1.0
147
0.09
 71
     0
 72
     0
 73
     1
 74
     1
 75
     0
 76
     0
 77
     0
 78
     0
170
     0
171
     2
172
     0
173
     0
174
     0
175
     0
176
     0
177
     0
178
     0
  0
ENDTAB
  0
ENDSEC
  0
SECTION
  2
BLOCKS
  0
BLOCK
  8
0
  2
$MODEL_SPACE
 70
     0
 10
0.0
 20
0.0
 30
0.0
  3
$MODEL_SPACE
  1

  0
ENDBLK
  5
1A
  8
0
  0
BLOCK
 67
     1
  8
0
  2
$PAPER_SPACE
 70
     0
 10
0.0
 20
0.0
 30
0.0
  3
$PAPER_SPACE
  1

  0
ENDBLK
  5
17
 67
     1
  8
0
  0
BLOCK
  8
0
  2
B110121
 70
     0
 10
0.0
 20
0.0
 30
0.0
  3
B110121
  1

  0
LINE
  5
12C2
  8
0
  6
CONTINUOUS
 62
     3
 10
-3106.95
 20
-553.7
 30
0.0
 11
-3011.7
 21
-773.5
 31
0.0
  0
LINE
  5
12C3
  8
0
  6
CONTINUOUS
 62
     3
 10
-3083.68
 20
-500.0
 30
0.0
 11
-2963.86
 21
-776.5
 31
0.0
  0
LINE
  5
12C4
  8
0
  6
CONTINUOUS
 62
     3
 10
-3011.7
 20
-226.4
 30
0.0
 11
-3242.44
 21
-759.0
 31
0.0
  0
LINE
  5
12C5
  8
0
  6
CONTINUOUS
 62
     3
 10
-2963.86
 20
-223.4
 30
0.0
 11
-3197.14
 21
-761.9
 31
0.0
  0
LINE
  5
12C6
  8
0
  6
CONTINUOUS
 62
     3
 10
-130.0
 20
-45.1
 30
0.0
 11
-3403.9
 21
-251.1
 31
0.0
  0
LINE
  5
12C7
  8
0
  6
CONTINUOUS
 62
     3
 10
-130.0
 20
-954.9
 30
0.0
 11
-3403.9
 21
-748.8
 31
0.0
  0
LINE
  5
12C8
  8
0
  6
CONTINUOUS
 62
     3
 10
-385.460167
 20
29.002506
 30
0.0
 11
-4512.0
 21
-230.6
 31
0.0
  0
LINE
  5
12C9
  8
0
  6
CONTINUOUS
 62
     3
 10
-80.0
 20
-1048.226548
 30
0.0
 11
-4512.0
 21
-769.3
 31
0.0
  0
ARC
  5
12CA
  8
0
  6
CONTINUOUS
 62
     3
 10
-5500.0
 20
-550.0
 30
0.0
 40
458.0
 50
180.0
 51
300.0
  0
POINT
  5
12CB
  8
ô_
 62
     1
 10
-5500.0
 20
-650.0
 30
0.0
  0
LINE
  5
12CC
  8
0
  6
CONTINUOUS
 62
     3
 10
-3410.77
 20
-449.4
 30
0.0
 11
-3322.66
 21
-260.0
 31
0.0
  0
LINE
  5
12CD
  8
0
  6
CONTINUOUS
 62
     3
 10
-3387.22
 20
-500.0
 30
0.0
 11
-3267.4
 21
-242.5
 31
0.0
  0
LINE
  5
12CE
  8
0
  6
CONTINUOUS
 62
     3
 10
-3242.45
 20
-240.9
 30
0.0
 11
-3130.22
 21
-500.0
 31
0.0
  0
LINE
  5
12CF
  8
0
  6
CONTINUOUS
 62
     3
 10
-3197.14
 20
-238.1
 30
0.0
 11
-3106.95
 21
-446.3
 31
0.0
  0
LINE
  5
12D0
  8
0
  6
CONTINUOUS
 62
     3
 10
-3656.4
 20
-416.2
 30
0.0
 11
-3302.8
 21
-185.0
 31
0.0
  0
LINE
  5
12D1
  8
0
  6
CONTINUOUS
 62
     3
 10
-4512.0
 20
-215.0
 30
0.0
 11
-4512.0
 21
-768.0
 31
0.0
  0
LINE
  5
12D2
  8
0
  6
CONTINUOUS
 62
     3
 10
-5166.6
 20
-30.8
 30
0.0
 11
-5932.8
 21
-305.3
 31
0.0
  0
LINE
  5
12D3
  8
0
  6
CONTINUOUS
 62
     3
 10
-4512.0
 20
-768.0
 30
0.0
 11
-4909.999238
 21
-738.1573
 31
0.0
  0
LINE
  5
12D4
  8
0
  6
CONTINUOUS
 62
     3
 10
-5942.2
 20
-1009.5
 30
0.0
 11
-5883.1
 21
-801.0
 31
0.0
  0
LINE
  5
12D5
  8
0
  6
CONTINUOUS
 62
     3
 10
-5831.9
 20
-1094.5
 30
0.0
 11
-5645.2
 21
-984.3
 31
0.0
  0
CIRCLE
  5
12D6
  8
0
  6
CONTINUOUS
 62
     3
 10
-5870.0
 20
-1030.0
 30
0.0
 40
35.25
  0
ARC
  5
12D7
  8
0
  6
CONTINUOUS
 62
     3
 10
-5870.0
 20
-1030.0
 30
0.0
 40
116.0
 50
114.465
 51
350.273
  0
ARC
  5
12D8
  8
0
  6
CONTINUOUS
 62
     3
 10
-5870.0
 20
-1030.0
 30
0.0
 40
75.0007
 50
164.181
 51
300.567
  0
ARC
  5
12D9
  8
0
  6
CONTINUOUS
 62
     3
 10
-5920.0
 20
-341.1
 30
0.0
 40
37.9995
 50
109.711
 51
180.0
  0
LINE
  5
12DA
  8
0
  6
CONTINUOUS
 62
     3
 10
-5958.0
 20
-341.1
 30
0.0
 11
-5958.0
 21
-550.0
 31
0.0
  0
LINE
  5
12DB
  8
0
  6
CONTINUOUS
 62
     3
 10
-4866.6
 20
-878.0
 30
0.0
 11
-4825.2
 21
-744.5
 31
0.0
  0
LINE
  5
12DC
  8
0
  6
CONTINUOUS
 62
     3
 10
-5271.0
 20
-946.6
 30
0.0
 11
-4909.999238
 21
-738.1573
 31
0.0
  0
LINE
  5
12DD
  8
0
  6
CONTINUOUS
 62
     3
 10
-4940.2
 20
-905.9
 30
0.0
 11
-5067.2
 21
-828.9
 31
0.0
  0
ARC
  5
12DE
  8
0
  6
CONTINUOUS
 62
     3
 10
-4914.3
 20
-863.2
 30
0.0
 40
49.999
 50
238.761
 51
342.78
  0
LINE
  5
12DF
  8
ô_
 62
     3
 10
-3302.8
 20
-815.0
 30
0.0
 11
-3302.8
 21
-845.400628
 31
0.0
  0
LINE
  5
12E0
  8
0
  6
CONTINUOUS
 62
     3
 10
-3322.65
 20
-739.9
 30
0.0
 11
-3516.02
 21
-324.4
 31
0.0
  0
LINE
  5
12E1
  8
0
  6
CONTINUOUS
 62
     3
 10
-3516.03
 20
-675.5
 30
0.0
 11
-3434.32
 21
-500.0
 31
0.0
  0
LINE
  5
12E2
  8
0
  6
CONTINUOUS
 62
     3
 10
-3479.92
 20
-699.2
 30
0.0
 11
-3410.77
 21
-550.6
 31
0.0
  0
LINE
  5
12E3
  8
0
  6
CONTINUOUS
 62
     3
 10
-3267.39
 20
-757.4
 30
0.0
 11
-3479.91
 21
-300.8
 31
0.0
  0
LINE
  5
12E4
  8
0
  6
CONTINUOUS
 62
     3
 10
-3302.8
 20
-815.0
 30
0.0
 11
-3656.4
 21
-583.7
 31
0.0
  0
POLYLINE
  5
12E5
  8
0
  6
CONTINUOUS
 62
     3
 66
     1
 10
0.0
 20
0.0
 30
0.0
  0
VERTEX
  5
12E6
  8
0
 62
     3
 10
-3656.2
 20
-416.0
 30
0.0
  0
VERTEX
  5
12E7
  8
0
 62
     3
 10
-3663.54
 20
-421.3
 30
0.0
  0
VERTEX
  5
12E8
  8
0
 62
     3
 10
-3670.39
 20
-427.2
 30
0.0
  0
VERTEX
  5
12E9
  8
0
 62
     3
 10
-3676.67
 20
-433.7
 30
0.0
  0
VERTEX
  5
12EA
  8
0
 62
     3
 10
-3682.34
 20
-440.7
 30
0.0
  0
VERTEX
  5
12EB
  8
0
 62
     3
 10
-3687.35
 20
-448.3
 30
0.0
  0
VERTEX
  5
12EC
  8
0
 62
     3
 10
-3691.66
 20
-456.2
 30
0.0
  0
VERTEX
  5
12ED
  8
0
 62
     3
 10
-3695.24
 20
-464.5
 30
0.0
  0
VERTEX
  5
12EE
  8
0
 62
     3
 10
-3698.05
 20
-473.1
 30
0.0
  0
VERTEX
  5
12EF
  8
0
 62
     3
 10
-3700.08
 20
-481.9
 30
0.0
  0
VERTEX
  5
12F0
  8
0
 62
     3
 10
-3701.3
 20
-490.9
 30
0.0
  0
VERTEX
  5
12F1
  8
0
 62
     3
 10
-3701.71
 20
-500.0
 30
0.0
  0
VERTEX
  5
12F2
  8
0
 62
     3
 10
-3701.3
 20
-509.0
 30
0.0
  0
VERTEX
  5
12F3
  8
0
 62
     3
 10
-3700.08
 20
-518.0
 30
0.0
  0
VERTEX
  5
12F4
  8
0
 62
     3
 10
-3698.05
 20
-526.8
 30
0.0
  0
VERTEX
  5
12F5
  8
0
 62
     3
 10
-3695.24
 20
-535.4
 30
0.0
  0
VERTEX
  5
12F6
  8
0
 62
     3
 10
-3691.66
 20
-543.7
 30
0.0
  0
VERTEX
  5
12F7
  8
0
 62
     3
 10
-3687.35
 20
-551.7
 30
0.0
  0
VERTEX
  5
12F8
  8
0
 62
     3
 10
-3682.34
 20
-559.2
 30
0.0
  0
VERTEX
  5
12F9
  8
0
 62
     3
 10
-3676.67
 20
-566.2
 30
0.0
  0
VERTEX
  5
12FA
  8
0
 62
     3
 10
-3670.39
 20
-572.7
 30
0.0
  0
VERTEX
  5
12FB
  8
0
 62
     3
 10
-3663.54
 20
-578.6
 30
0.0
  0
VERTEX
  5
12FC
  8
0
 62
     3
 10
-3656.2
 20
-583.9
 30
0.0
  0
SEQEND
  5
12FD
  8
0
 62
     3
  0
LINE
  5
12FE
  8
0
  6
CONTINUOUS
 62
     3
 10
-3315.9
 20
-754.4
 30
0.0
 11
-3322.6
 21
-739.9
 31
0.0
  0
LINE
  5
12FF
  8
0
  6
CONTINUOUS
 62
     3
 10
-4840.2
 20
30.2
 30
0.0
 11
-4512.0
 21
-215.0
 31
0.0
  0
ARC
  5
1300
  8
0
  6
CONTINUOUS
 62
     3
 10
-5365.0
 20
0.0
 30
0.0
 40
32.4961
 50
0.0
 51
180.0
  0
ARC
  5
1301
  8
0
  6
CONTINUOUS
 62
     3
 10
-5190.0
 20
-170.0
 30
0.0
 40
222.5
 50
158.839
 51
166.115
  0
LINE
  5
1302
  8
0
  6
CONTINUOUS
 62
     3
 10
-5332.5
 20
0.0
 30
0.0
 11
-5332.5
 21
-90.2
 31
0.0
  0
LINE
  5
1303
  8
0
  6
CONTINUOUS
 62
     3
 10
-5397.5
 20
0.0
 30
0.0
 11
-5397.5
 21
-113.5
 31
0.0
  0
CIRCLE
  5
1304
  8
0
  6
CONTINUOUS
 62
     3
 10
-4900.0
 20
-50.0
 30
0.0
 40
49.9999
  0
LINE
  5
1305
  8
0
  6
CONTINUOUS
 62
     3
 10
-4933.86
 20
44.1
 30
0.0
 11
-5163.9
 21
-38.3
 31
0.0
  0
LINE
  5
1306
  8
0
  6
CONTINUOUS
 62
     3
 10
-5166.6
 20
-30.8
 30
0.0
 11
-5163.9
 21
-38.3
 31
0.0
  0
ARC
  5
1307
  8
0
  6
CONTINUOUS
 62
     3
 10
-4900.0
 20
-50.0
 30
0.0
 40
100.0
 50
53.242
 51
109.796
  0
LINE
  5
1308
  8
0
  6
CONTINUOUS
 62
     3
 10
-3302.8
 20
-154.6
 30
0.0
 11
-3302.8
 21
-185.0
 31
0.0
  0
LINE
  5
1309
  8
0
  6
CONTINUOUS
 62
     3
 10
-3322.6
 20
-260.0
 30
0.0
 11
-3315.9
 21
-245.5
 31
0.0
  0
LINE
  5
130A
  8
ô_
 62
     3
 10
-80.0
 20
52.5
 30
0.0
 11
-385.8
 21
34.1
 31
0.0
  0
LINE
  5
130B
  8
ô_
 62
     3
 10
-130.0
 20
-954.9
 30
0.0
 11
-80.0
 21
-947.5
 31
0.0
  0
POINT
  5
130C
  8
ô_
 62
     1
 10
0.0
 20
-1000.0
 30
0.0
  0
POINT
  5
130D
  8
ô_
 62
     1
 10
0.0
 20
0.0
 30
0.0
  0
LINE
  5
130E
  8
0
  6
CONTINUOUS
 62
     3
 10
-130.0
 20
-52.5
 30
0.0
 11
-80.0
 21
-52.5
 31
0.0
  0
LINE
  5
130F
  8
0
  6
CONTINUOUS
 62
     3
 10
-510.64
 20
-69.0
 30
0.0
 11
-257.05
 21
-941.9
 31
0.0
  0
LINE
  5
1310
  8
0
  6
CONTINUOUS
 62
     3
 10
-466.97
 20
-66.3
 30
0.0
 11
-211.76
 21
-944.7
 31
0.0
  0
LINE
  5
1311
  8
0
  6
CONTINUOUS
 62
     3
 10
-2803.17
 20
-443.1
 30
0.0
 11
-2707.6
 21
-207.3
 31
0.0
  0
LINE
  5
1312
  8
0
  6
CONTINUOUS
 62
     3
 10
-2780.13
 20
-500.0
 30
0.0
 11
-2660.33
 21
-204.3
 31
0.0
  0
LINE
  5
1313
  8
0
  6
CONTINUOUS
 62
     3
 10
-2195.7
 20
-436.7
 30
0.0
 11
-2099.67
 21
-169.0
 31
0.0
  0
LINE
  5
1314
  8
0
  6
CONTINUOUS
 62
     3
 10
-2173.01
 20
-500.0
 30
0.0
 11
-2053.26
 21
-166.1
 31
0.0
  0
LINE
  5
1315
  8
0
  6
CONTINUOUS
 62
     3
 10
-1306.95
 20
-500.0
 30
0.0
 11
-1421.23
 21
-126.3
 31
0.0
  0
LINE
  5
1316
  8
0
  6
CONTINUOUS
 62
     3
 10
-1284.62
 20
-427.0
 30
0.0
 11
-1377.43
 21
-123.6
 31
0.0
  0
LINE
  5
1317
  8
0
  6
CONTINUOUS
 62
     3
 10
-699.48
 20
-500.0
 30
0.0
 11
-814.17
 21
-88.1
 31
0.0
  0
LINE
  5
1318
  8
0
  6
CONTINUOUS
 62
     3
 10
-677.32
 20
-420.4
 30
0.0
 11
-770.61
 21
-85.4
 31
0.0
  0
LINE
  5
1319
  8
0
  6
CONTINUOUS
 62
     3
 10
-363.2
 20
-423.5
 30
0.0
 11
-255.558401
 21
-53.000373
 31
0.0
  0
LINE
  5
131A
  8
0
  6
CONTINUOUS
 62
     3
 10
-340.98
 20
-500.0
 30
0.0
 11
-210.293557
 21
-50.152223
 31
0.0
  0
LINE
  5
131B
  8
0
  6
CONTINUOUS
 62
     3
 10
-2707.61
 20
-792.7
 30
0.0
 11
-2938.91
 21
-221.8
 31
0.0
  0
LINE
  5
131C
  8
0
  6
CONTINUOUS
 62
     3
 10
-2660.33
 20
-795.6
 30
0.0
 11
-2893.99
 21
-219.0
 31
0.0
  0
LINE
  5
131D
  8
0
  6
CONTINUOUS
 62
     3
 10
-2635.37
 20
-202.7
 30
0.0
 11
-2522.25
 21
-500.0
 31
0.0
  0
LINE
  5
131E
  8
0
  6
CONTINUOUS
 62
     3
 10
-2590.75
 20
-199.9
 30
0.0
 11
-2499.41
 21
-439.9
 31
0.0
  0
LINE
  5
131F
  8
0
  6
CONTINUOUS
 62
     3
 10
-2403.61
 20
-188.1
 30
0.0
 11
-2635.38
 21
-797.2
 31
0.0
  0
LINE
  5
1320
  8
0
  6
CONTINUOUS
 62
     3
 10
-2356.8
 20
-185.2
 30
0.0
 11
-2590.77
 21
-800.0
 31
0.0
  0
LINE
  5
1321
  8
0
  6
CONTINUOUS
 62
     3
 10
-2053.25
 20
-833.8
 30
0.0
 11
-2287.47
 21
-180.8
 31
0.0
  0
LINE
  5
1322
  8
0
  6
CONTINUOUS
 62
     3
 10
-2099.66
 20
-830.9
 30
0.0
 11
-2331.83
 21
-183.6
 31
0.0
  0
LINE
  5
1323
  8
0
  6
CONTINUOUS
 62
     3
 10
-2028.3
 20
-164.5
 30
0.0
 11
-1914.53
 21
-500.0
 31
0.0
  0
LINE
  5
1324
  8
0
  6
CONTINUOUS
 62
     3
 10
-1984.15
 20
-161.7
 30
0.0
 11
-1891.98
 21
-433.5
 31
0.0
  0
LINE
  5
1325
  8
0
  6
CONTINUOUS
 62
     3
 10
-2028.3
 20
-835.4
 30
0.0
 11
-1795.79
 21
-149.9
 31
0.0
  0
LINE
  5
1326
  8
0
  6
CONTINUOUS
 62
     3
 10
-1984.15
 20
-838.2
 30
0.0
 11
-1749.71
 21
-147.0
 31
0.0
  0
LINE
  5
1327
  8
0
  6
CONTINUOUS
 62
     3
 10
-1491.96
 20
-869.2
 30
0.0
 11
-1724.77
 21
-145.4
 31
0.0
  0
LINE
  5
1328
  8
0
  6
CONTINUOUS
 62
     3
 10
-1446.19
 20
-872.1
 30
0.0
 11
-1680.81
 21
-142.7
 31
0.0
  0
LINE
  5
1329
  8
0
  6
CONTINUOUS
 62
     3
 10
-1491.98
 20
-130.8
 30
0.0
 11
-1588.31
 21
-430.2
 31
0.0
  0
LINE
  5
132A
  8
0
  6
CONTINUOUS
 62
     3
 10
-1446.19
 20
-127.9
 30
0.0
 11
-1565.87
 21
-500.0
 31
0.0
  0
LINE
  5
132B
  8
0
  6
CONTINUOUS
 62
     3
 10
-1188.18
 20
-111.7
 30
0.0
 11
-1421.24
 21
-873.6
 31
0.0
  0
LINE
  5
132C
  8
0
  6
CONTINUOUS
 62
     3
 10
-1142.65
 20
-108.8
 30
0.0
 11
-1377.42
 21
-876.4
 31
0.0
  0
LINE
  5
132D
  8
0
  6
CONTINUOUS
 62
     3
 10
-884.43
 20
-907.4
 30
0.0
 11
-1117.7
 21
-107.2
 31
0.0
  0
LINE
  5
132E
  8
0
  6
CONTINUOUS
 62
     3
 10
-839.12
 20
-910.3
 30
0.0
 11
-1074.03
 21
-104.5
 31
0.0
  0
LINE
  5
132F
  8
0
  6
CONTINUOUS
 62
     3
 10
-884.41
 20
-92.6
 30
0.0
 11
-980.95
 21
-423.7
 31
0.0
  0
LINE
  5
1330
  8
0
  6
CONTINUOUS
 62
     3
 10
-839.1
 20
-89.7
 30
0.0
 11
-958.71
 21
-500.0
 31
0.0
  0
LINE
  5
1331
  8
0
  6
CONTINUOUS
 62
     3
 10
-580.7
 20
-73.4
 30
0.0
 11
-814.17
 21
-911.8
 31
0.0
  0
LINE
  5
1332
  8
0
  6
CONTINUOUS
 62
     3
 10
-535.58
 20
-70.6
 30
0.0
 11
-770.61
 21
-914.6
 31
0.0
  0
LINE
  5
1333
  8
0
  6
CONTINUOUS
 62
     3
 10
-186.25
 20
-48.639357
 30
0.0
 11
-186.25
 21
-946.3
 31
0.0
  0
LINE
  5
1334
  8
0
  6
CONTINUOUS
 62
     3
 10
-143.56
 20
-45.953221
 30
0.0
 11
-143.56
 21
-949.0
 31
0.0
  0
LINE
  5
1335
  8
0
  6
CONTINUOUS
 62
     3
 10
-1588.3
 20
-569.7
 30
0.0
 11
-1680.81
 21
-857.3
 31
0.0
  0
LINE
  5
1336
  8
0
  6
CONTINUOUS
 62
     3
 10
-2938.91
 20
-778.1
 30
0.0
 11
-2826.2
 21
-500.0
 31
0.0
  0
LINE
  5
1337
  8
0
  6
CONTINUOUS
 62
     3
 10
-2893.98
 20
-780.9
 30
0.0
 11
-2803.17
 21
-556.8
 31
0.0
  0
LINE
  5
1338
  8
0
  6
CONTINUOUS
 62
     3
 10
-2499.41
 20
-560.0
 30
0.0
 11
-2403.59
 21
-811.8
 31
0.0
  0
LINE
  5
1339
  8
0
  6
CONTINUOUS
 62
     3
 10
-2476.56
 20
-500.0
 30
0.0
 11
-2356.78
 21
-814.7
 31
0.0
  0
LINE
  5
133A
  8
0
  6
CONTINUOUS
 62
     3
 10
-1891.98
 20
-566.4
 30
0.0
 11
-1795.79
 21
-850.0
 31
0.0
  0
LINE
  5
133B
  8
0
  6
CONTINUOUS
 62
     3
 10
-1869.44
 20
-500.0
 30
0.0
 11
-1749.72
 21
-852.9
 31
0.0
  0
LINE
  5
133C
  8
0
  6
CONTINUOUS
 62
     3
 10
-1610.73
 20
-500.0
 30
0.0
 11
-1724.78
 21
-854.5
 31
0.0
  0
LINE
  5
133D
  8
0
  6
CONTINUOUS
 62
     3
 10
-2331.84
 20
-816.3
 30
0.0
 11
-2218.38
 21
-500.0
 31
0.0
  0
LINE
  5
133E
  8
0
  6
CONTINUOUS
 62
     3
 10
-2287.48
 20
-819.1
 30
0.0
 11
-2195.69
 21
-563.2
 31
0.0
  0
LINE
  5
133F
  8
0
  6
CONTINUOUS
 62
     3
 10
-1003.19
 20
-500.0
 30
0.0
 11
-1117.68
 21
-892.7
 31
0.0
  0
LINE
  5
1340
  8
0
  6
CONTINUOUS
 62
     3
 10
-980.95
 20
-576.3
 30
0.0
 11
-1074.01
 21
-895.5
 31
0.0
  0
LINE
  5
1341
  8
0
  6
CONTINUOUS
 62
     3
 10
-1188.18
 20
-888.3
 30
0.0
 11
-1284.62
 21
-573.0
 31
0.0
  0
LINE
  5
1342
  8
0
  6
CONTINUOUS
 62
     3
 10
-1142.65
 20
-891.2
 30
0.0
 11
-1262.3
 21
-500.0
 31
0.0
  0
LINE
  5
1343
  8
0
  6
CONTINUOUS
 62
     3
 10
-580.7
 20
-926.5
 30
0.0
 11
-677.31
 21
-579.6
 31
0.0
  0
LINE
  5
1344
  8
0
  6
CONTINUOUS
 62
     3
 10
-535.59
 20
-929.4
 30
0.0
 11
-655.16
 21
-500.0
 31
0.0
  0
LINE
  5
1345
  8
0
  6
CONTINUOUS
 62
     3
 10
-510.64
 20
-930.9
 30
0.0
 11
-385.43
 21
-500.0
 31
0.0
  0
LINE
  5
1346
  8
0
  6
CONTINUOUS
 62
     3
 10
-466.97
 20
-933.7
 30
0.0
 11
-363.21
 21
-576.5
 31
0.0
  0
ARC
  5
1347
  8
0
  6
CONTINUOUS
 62
     3
 10
-277.9
 20
-1070.8
 30
0.0
 40
19.9984
 50
192.564
 51
285.149
  0
LINE
  5
1348
  8
0
  6
CONTINUOUS
 62
     3
 10
-136.3
 20
-954.5
 30
0.0
 11
-135.9
 21
-949.5
 31
0.0
  0
LINE
  5
1349
  8
0
  6
CONTINUOUS
 62
     3
 10
-146.7
 20
-1056.0
 30
0.0
 11
-146.018383
 21
-1044.071701
 31
0.0
  0
LINE
  5
134A
  8
0
  6
CONTINUOUS
 62
     3
 10
-297.4
 20
-1075.4
 30
0.0
 11
-307.198356
 21
-1033.92789
 31
0.0
  0
LINE
  5
134B
  8
0
  6
CONTINUOUS
 62
     3
 10
-379.8
 20
-939.2
 30
0.0
 11
-379.5
 21
-934.2
 31
0.0
  0
LINE
  5
134C
  8
0
  6
CONTINUOUS
 62
     3
 10
-272.7
 20
-1090.1
 30
0.0
 11
-146.7
 21
-1056.0
 31
0.0
  0
LINE
  5
134D
  8
0
  6
CONTINUOUS
 62
     3
 10
-136.0
 20
-949.5
 30
0.0
 11
-379.5
 21
-934.2
 31
0.0
  0
ARC
  5
134E
  8
0
  6
CONTINUOUS
 62
     3
 10
-164.9
 20
92.4
 30
0.0
 40
34.9995
 50
338.224
 51
21.7759
  0
ARC
  5
134F
  8
0
  6
CONTINUOUS
 62
     3
 10
-164.9
 20
92.4
 30
0.0
 40
34.9992
 50
158.208
 51
201.792
  0
LINE
  5
1350
  8
0
  6
CONTINUOUS
 62
     3
 10
-179.9
 20
172.4
 30
0.0
 11
-149.9
 21
172.4
 31
0.0
  0
LINE
  5
1351
  8
0
  6
CONTINUOUS
 62
     3
 10
-132.4
 20
122.4
 30
0.0
 11
-132.4
 21
49.34709
 31
0.0
  0
LINE
  5
1352
  8
0
  6
CONTINUOUS
 62
     3
 10
-197.4
 20
122.4
 30
0.0
 11
-197.4
 21
45.436037
 31
0.0
  0
LINE
  5
1353
  8
0
  6
CONTINUOUS
 62
     3
 10
-197.4
 20
122.4
 30
0.0
 11
-179.9
 21
172.4
 31
0.0
  0
LINE
  5
1354
  8
0
  6
CONTINUOUS
 62
     3
 10
-149.9
 20
172.4
 30
0.0
 11
-132.4
 21
122.4
 31
0.0
  0
LINE
  5
1355
  8
0
  6
CONTINUOUS
 62
     3
 10
-130.0
 20
-45.1
 30
0.0
 11
-130.0
 21
-52.5
 31
0.0
  0
LINE
  5
1356
  8
0
  6
CONTINUOUS
 62
     3
 10
-385.460167
 20
29.002506
 30
0.0
 11
-385.8
 21
34.1
 31
0.0
  0
ARC
  5
1357
  8
0
  6
CONTINUOUS
 62
     3
 10
0.0
 20
-1000.0
 30
0.0
 40
63.0001
 50
262.097
 51
97.9029
  0
CIRCLE
  5
1358
  8
0
  6
CONTINUOUS
 62
     3
 10
0.0
 20
-1000.0
 30
0.0
 40
30.0
  0
LINE
  5
1359
  8
0
  6
CONTINUOUS
 62
     3
 10
-80.0
 20
-1052.4
 30
0.0
 11
-8.6
 21
-1062.4
 31
0.0
  0
LINE
  5
135A
  8
0
  6
CONTINUOUS
 62
     3
 10
-80.0
 20
-947.5
 30
0.0
 11
-8.6
 21
-937.6
 31
0.0
  0
LINE
  5
135B
  8
0
  6
CONTINUOUS
 62
     3
 10
-80.0
 20
-1052.5
 30
0.0
 11
-80.0
 21
-947.5
 31
0.0
  0
ARC
  5
135C
  8
0
  6
CONTINUOUS
 62
     3
 10
0.0
 20
0.0
 30
0.0
 40
63.0001
 50
262.097
 51
97.9029
  0
CIRCLE
  5
135D
  8
0
  6
CONTINUOUS
 62
     3
 10
0.0
 20
0.0
 30
0.0
 40
30.0
  0
LINE
  5
135E
  8
0
  6
CONTINUOUS
 62
     3
 10
-80.0
 20
-52.5
 30
0.0
 11
-8.6
 21
-62.4
 31
0.0
  0
LINE
  5
135F
  8
0
  6
CONTINUOUS
 62
     3
 10
-80.0
 20
52.5
 30
0.0
 11
-8.6
 21
62.4
 31
0.0
  0
ENDBLK
  5
1360
  8
0
  0
BLOCK
  8
0
  2
B110122
 70
     0
 10
0.0
 20
0.0
 30
0.0
  3
B110122
  1

  0
LINE
  5
141D
  8
0
  6
CONTINUOUS
 62
     3
 10
-3135.0
 20
-564.4
 30
0.0
 11
-2997.7
 21
-955.0
 31
0.0
  0
LINE
  5
141E
  8
0
  6
CONTINUOUS
 62
     3
 10
-3112.3
 20
-500.0
 30
0.0
 11
-2952.5
 21
-955.0
 31
0.0
  0
LINE
  5
141F
  8
0
  6
CONTINUOUS
 62
     3
 10
-2997.7
 20
-45.0
 30
0.0
 11
-3317.5
 21
-955.0
 31
0.0
  0
LINE
  5
1420
  8
0
  6
CONTINUOUS
 62
     3
 10
-2952.5
 20
-45.0
 30
0.0
 11
-3272.2
 21
-955.0
 31
0.0
  0
LINE
  5
1421
  8
0
  6
CONTINUOUS
 62
     3
 10
-8614.0
 20
-1045.0
 30
0.0
 11
-386.0
 21
-1045.0
 31
0.0
  0
LINE
  5
1422
  8
0
  6
CONTINUOUS
 62
     3
 10
-8870.0
 20
-955.0
 30
0.0
 11
-130.0
 21
-955.0
 31
0.0
  0
LINE
  5
1423
  8
0
  6
CONTINUOUS
 62
     3
 10
-130.0
 20
-45.0
 30
0.0
 11
-8870.0
 21
-45.0
 31
0.0
  0
LINE
  5
1424
  8
0
  6
CONTINUOUS
 62
     3
 10
-386.0
 20
45.0
 30
0.0
 11
-8614.0
 21
45.0
 31
0.0
  0
POINT
  5
1425
  8
ô_
 62
     1
 10
-9000.0
 20
-1000.0
 30
0.0
  0
POINT
  5
1426
  8
ô_
 62
     1
 10
-9000.0
 20
0.0
 30
0.0
  0
ARC
  5
1427
  8
0
  6
CONTINUOUS
 62
     3
 10
-9000.0
 20
0.0
 30
0.0
 40
63.0001
 50
82.097
 51
277.9029
  0
CIRCLE
  5
1428
  8
0
  6
CONTINUOUS
 62
     3
 10
-9000.0
 20
0.0
 30
0.0
 40
30.0
  0
ARC
  5
1429
  8
0
  6
CONTINUOUS
 62
     3
 10
-9000.0
 20
-1000.0
 30
0.0
 40
63.0001
 50
82.097
 51
277.9029
  0
CIRCLE
  5
142A
  8
0
  6
CONTINUOUS
 62
     3
 10
-9000.0
 20
-1000.0
 30
0.0
 40
30.0
  0
LINE
  5
142B
  8
0
  6
CONTINUOUS
 62
     3
 10
-8920.0
 20
-52.5
 30
0.0
 11
-8991.4
 21
-62.4
 31
0.0
  0
LINE
  5
142C
  8
0
  6
CONTINUOUS
 62
     3
 10
-8920.0
 20
52.5
 30
0.0
 11
-8991.4
 21
62.4
 31
0.0
  0
LINE
  5
142D
  8
0
  6
CONTINUOUS
 62
     3
 10
-8920.0
 20
-1052.5
 30
0.0
 11
-8991.4
 21
-1062.4
 31
0.0
  0
LINE
  5
142E
  8
0
  6
CONTINUOUS
 62
     3
 10
-8920.0
 20
-947.5
 30
0.0
 11
-8991.4
 21
-937.6
 31
0.0
  0
LINE
  5
142F
  8
0
  6
CONTINUOUS
 62
     3
 10
-6047.5
 20
-955.0
 30
0.0
 11
-5887.6
 21
-500.0
 31
0.0
  0
LINE
  5
1430
  8
0
  6
CONTINUOUS
 62
     3
 10
-5727.7
 20
-955.0
 30
0.0
 11
-6047.5
 21
-45.0
 31
0.0
  0
LINE
  5
1431
  8
0
  6
CONTINUOUS
 62
     3
 10
-8600.2
 20
-437.5
 30
0.0
 11
-8742.715484
 21
-45.0
 31
0.0
  0
LINE
  5
1432
  8
0
  6
CONTINUOUS
 62
     3
 10
-8622.9
 20
-500.0
 30
0.0
 11
-8788.115556
 21
-45.0
 31
0.0
  0
LINE
  5
1433
  8
0
  6
CONTINUOUS
 62
     3
 10
-8742.716022
 20
-955.0
 30
0.0
 11
-8412.2
 21
-45.0
 31
0.0
  0
LINE
  5
1434
  8
0
  6
CONTINUOUS
 62
     3
 10
-8788.116022
 20
-955.0
 30
0.0
 11
-8457.6
 21
-45.0
 31
0.0
  0
LINE
  5
1435
  8
0
  6
CONTINUOUS
 62
     3
 10
-8858.6
 20
-45.0
 30
0.0
 11
-8858.6
 21
-955.0
 31
0.0
  0
LINE
  5
1436
  8
0
  6
CONTINUOUS
 62
     3
 10
-8811.4
 20
-45.0
 30
0.0
 11
-8811.4
 21
-955.0
 31
0.0
  0
LINE
  5
1437
  8
0
  6
CONTINUOUS
 62
     3
 10
-7424.9
 20
-435.6
 30
0.0
 11
-7287.7
 21
-45.0
 31
0.0
  0
LINE
  5
1438
  8
0
  6
CONTINUOUS
 62
     3
 10
-7402.3
 20
-500.0
 30
0.0
 11
-7242.4
 21
-45.0
 31
0.0
  0
LINE
  5
1439
  8
0
  6
CONTINUOUS
 62
     3
 10
-7217.5
 20
-45.0
 30
0.0
 11
-7057.6
 21
-500.0
 31
0.0
  0
LINE
  5
143A
  8
0
  6
CONTINUOUS
 62
     3
 10
-7172.2
 20
-45.0
 30
0.0
 11
-7035.0
 21
-435.6
 31
0.0
  0
LINE
  5
143B
  8
0
  6
CONTINUOUS
 62
     3
 10
-7287.7
 20
-955.0
 30
0.0
 11
-7607.5
 21
-45.0
 31
0.0
  0
LINE
  5
143C
  8
0
  6
CONTINUOUS
 62
     3
 10
-7242.5
 20
-955.0
 30
0.0
 11
-7562.2
 21
-45.0
 31
0.0
  0
LINE
  5
143D
  8
0
  6
CONTINUOUS
 62
     3
 10
-6897.7
 20
-45.0
 30
0.0
 11
-7217.5
 21
-955.0
 31
0.0
  0
LINE
  5
143E
  8
0
  6
CONTINUOUS
 62
     3
 10
-6852.5
 20
-45.0
 30
0.0
 11
-7172.2
 21
-955.0
 31
0.0
  0
LINE
  5
143F
  8
0
  6
CONTINUOUS
 62
     3
 10
-6644.9
 20
-435.6
 30
0.0
 11
-6507.7
 21
-45.0
 31
0.0
  0
LINE
  5
1440
  8
0
  6
CONTINUOUS
 62
     3
 10
-6622.3
 20
-500.0
 30
0.0
 11
-6462.4
 21
-45.0
 31
0.0
  0
LINE
  5
1441
  8
0
  6
CONTINUOUS
 62
     3
 10
-6437.5
 20
-45.0
 30
0.0
 11
-6277.6
 21
-500.0
 31
0.0
  0
LINE
  5
1442
  8
0
  6
CONTINUOUS
 62
     3
 10
-6392.2
 20
-45.0
 30
0.0
 11
-6255.0
 21
-435.6
 31
0.0
  0
LINE
  5
1443
  8
0
  6
CONTINUOUS
 62
     3
 10
-6507.7
 20
-955.0
 30
0.0
 11
-6827.5
 21
-45.0
 31
0.0
  0
LINE
  5
1444
  8
0
  6
CONTINUOUS
 62
     3
 10
-6462.5
 20
-955.0
 30
0.0
 11
-6782.2
 21
-45.0
 31
0.0
  0
LINE
  5
1445
  8
0
  6
CONTINUOUS
 62
     3
 10
-6117.7
 20
-45.0
 30
0.0
 11
-6437.5
 21
-955.0
 31
0.0
  0
LINE
  5
1446
  8
0
  6
CONTINUOUS
 62
     3
 10
-6072.5
 20
-45.0
 30
0.0
 11
-6392.2
 21
-955.0
 31
0.0
  0
LINE
  5
1447
  8
0
  6
CONTINUOUS
 62
     3
 10
-8204.9
 20
-435.6
 30
0.0
 11
-8067.7
 21
-45.0
 31
0.0
  0
LINE
  5
1448
  8
0
  6
CONTINUOUS
 62
     3
 10
-8182.3
 20
-500.0
 30
0.0
 11
-8022.4
 21
-45.0
 31
0.0
  0
LINE
  5
1449
  8
0
  6
CONTINUOUS
 62
     3
 10
-7997.5
 20
-45.0
 30
0.0
 11
-7837.6
 21
-500.0
 31
0.0
  0
LINE
  5
144A
  8
0
  6
CONTINUOUS
 62
     3
 10
-7952.2
 20
-45.0
 30
0.0
 11
-7815.0
 21
-435.6
 31
0.0
  0
LINE
  5
144B
  8
0
  6
CONTINUOUS
 62
     3
 10
-8067.7
 20
-955.0
 30
0.0
 11
-8387.4
 21
-45.0
 31
0.0
  0
LINE
  5
144C
  8
0
  6
CONTINUOUS
 62
     3
 10
-8022.4
 20
-955.0
 30
0.0
 11
-8342.2
 21
-45.0
 31
0.0
  0
LINE
  5
144D
  8
0
  6
CONTINUOUS
 62
     3
 10
-7632.4
 20
-45.0
 30
0.0
 11
-7952.2
 21
-955.0
 31
0.0
  0
LINE
  5
144E
  8
0
  6
CONTINUOUS
 62
     3
 10
-7677.7
 20
-45.0
 30
0.0
 11
-7997.4
 21
-955.0
 31
0.0
  0
LINE
  5
144F
  8
0
  6
CONTINUOUS
 62
     3
 10
-7607.4
 20
-955.0
 30
0.0
 11
-7447.6
 21
-500.0
 31
0.0
  0
LINE
  5
1450
  8
0
  6
CONTINUOUS
 62
     3
 10
-7562.2
 20
-955.0
 30
0.0
 11
-7424.9
 21
-564.4
 31
0.0
  0
LINE
  5
1451
  8
0
  6
CONTINUOUS
 62
     3
 10
-8387.4
 20
-955.0
 30
0.0
 11
-8227.6
 21
-500.0
 31
0.0
  0
LINE
  5
1452
  8
0
  6
CONTINUOUS
 62
     3
 10
-8342.2
 20
-955.0
 30
0.0
 11
-8204.9
 21
-564.4
 31
0.0
  0
LINE
  5
1453
  8
0
  6
CONTINUOUS
 62
     3
 10
-8457.7
 20
-955.0
 30
0.0
 11
-8600.2
 21
-562.5
 31
0.0
  0
LINE
  5
1454
  8
0
  6
CONTINUOUS
 62
     3
 10
-8412.2
 20
-955.0
 30
0.0
 11
-8577.5
 21
-500.0
 31
0.0
  0
LINE
  5
1455
  8
0
  6
CONTINUOUS
 62
     3
 10
-8614.0
 20
-1045.0
 30
0.0
 11
-8614.0
 21
-1050.0
 31
0.0
  0
LINE
  5
1456
  8
0
  6
CONTINUOUS
 62
     3
 10
-8920.0
 20
-947.5
 30
0.0
 11
-8920.0
 21
-1052.5
 31
0.0
  0
LINE
  5
1457
  8
0
  6
CONTINUOUS
 62
     3
 10
-8870.0
 20
-947.5
 30
0.0
 11
-8870.0
 21
-1052.5
 31
0.0
  0
LINE
  5
1458
  8
0
  6
CONTINUOUS
 62
     3
 10
-8920.0
 20
-947.5
 30
0.0
 11
-8870.0
 21
-947.5
 31
0.0
  0
LINE
  5
1459
  8
0
  6
CONTINUOUS
 62
     3
 10
-8920.0
 20
-1052.5
 30
0.0
 11
-8870.0
 21
-1052.5
 31
0.0
  0
LINE
  5
145A
  8
0
  6
CONTINUOUS
 62
     3
 10
-8870.0
 20
-1050.0
 30
0.0
 11
-8614.0
 21
-1050.0
 31
0.0
  0
LINE
  5
145B
  8
0
  6
CONTINUOUS
 62
     3
 10
-7815.0
 20
-564.4
 30
0.0
 11
-7677.7
 21
-955.0
 31
0.0
  0
LINE
  5
145C
  8
0
  6
CONTINUOUS
 62
     3
 10
-7792.3
 20
-500.0
 30
0.0
 11
-7632.5
 21
-955.0
 31
0.0
  0
LINE
  5
145D
  8
0
  6
CONTINUOUS
 62
     3
 10
-6827.4
 20
-955.0
 30
0.0
 11
-6667.6
 21
-500.0
 31
0.0
  0
LINE
  5
145E
  8
0
  6
CONTINUOUS
 62
     3
 10
-6782.2
 20
-955.0
 30
0.0
 11
-6644.9
 21
-564.4
 31
0.0
  0
LINE
  5
145F
  8
0
  6
CONTINUOUS
 62
     3
 10
-7035.0
 20
-564.4
 30
0.0
 11
-6897.7
 21
-955.0
 31
0.0
  0
LINE
  5
1460
  8
0
  6
CONTINUOUS
 62
     3
 10
-7012.3
 20
-500.0
 30
0.0
 11
-6852.5
 21
-955.0
 31
0.0
  0
LINE
  5
1461
  8
0
  6
CONTINUOUS
 62
     3
 10
-6255.0
 20
-564.4
 30
0.0
 11
-6117.7
 21
-955.0
 31
0.0
  0
LINE
  5
1462
  8
0
  6
CONTINUOUS
 62
     3
 10
-6232.3
 20
-500.0
 30
0.0
 11
-6072.5
 21
-955.0
 31
0.0
  0
LINE
  5
1463
  8
ô_
 62
     3
 10
-8870.0
 20
52.5
 30
0.0
 11
-8870.0
 21
-52.5
 31
0.0
  0
LINE
  5
1464
  8
0
  6
CONTINUOUS
 62
     3
 10
-8614.0
 20
50.0
 30
0.0
 11
-8614.0
 21
45.0
 31
0.0
  0
LINE
  5
1465
  8
0
  6
CONTINUOUS
 62
     3
 10
-8920.0
 20
52.5
 30
0.0
 11
-8870.0
 21
52.5
 31
0.0
  0
LINE
  5
1466
  8
0
  6
CONTINUOUS
 62
     3
 10
-8920.0
 20
-52.5
 30
0.0
 11
-8870.0
 21
-52.5
 31
0.0
  0
LINE
  5
1467
  8
0
  6
CONTINUOUS
 62
     3
 10
-8920.0
 20
52.5
 30
0.0
 11
-8920.0
 21
-52.5
 31
0.0
  0
LINE
  5
1468
  8
0
  6
CONTINUOUS
 62
     3
 10
-8614.0
 20
50.0
 30
0.0
 11
-8870.0
 21
50.0
 31
0.0
  0
LINE
  5
1469
  8
0
  6
CONTINUOUS
 62
     3
 10
-5865.0
 20
-435.6
 30
0.0
 11
-5727.7
 21
-45.0
 31
0.0
  0
LINE
  5
146A
  8
0
  6
CONTINUOUS
 62
     3
 10
-5842.3
 20
-500.0
 30
0.0
 11
-5682.5
 21
-45.0
 31
0.0
  0
LINE
  5
146B
  8
0
  6
CONTINUOUS
 62
     3
 10
-5657.5
 20
-45.0
 30
0.0
 11
-5497.6
 21
-500.0
 31
0.0
  0
LINE
  5
146C
  8
0
  6
CONTINUOUS
 62
     3
 10
-5612.2
 20
-45.0
 30
0.0
 11
-5475.0
 21
-435.6
 31
0.0
  0
LINE
  5
146D
  8
0
  6
CONTINUOUS
 62
     3
 10
-5682.5
 20
-955.0
 30
0.0
 11
-6002.2
 21
-45.0
 31
0.0
  0
LINE
  5
146E
  8
0
  6
CONTINUOUS
 62
     3
 10
-5337.7
 20
-45.0
 30
0.0
 11
-5657.5
 21
-955.0
 31
0.0
  0
LINE
  5
146F
  8
0
  6
CONTINUOUS
 62
     3
 10
-5292.5
 20
-45.0
 30
0.0
 11
-5612.2
 21
-955.0
 31
0.0
  0
LINE
  5
1470
  8
0
  6
CONTINUOUS
 62
     3
 10
-5085.0
 20
-435.6
 30
0.0
 11
-4947.7
 21
-45.0
 31
0.0
  0
LINE
  5
1471
  8
0
  6
CONTINUOUS
 62
     3
 10
-5062.3
 20
-500.0
 30
0.0
 11
-4902.5
 21
-45.0
 31
0.0
  0
LINE
  5
1472
  8
0
  6
CONTINUOUS
 62
     3
 10
-4877.5
 20
-45.0
 30
0.0
 11
-4717.6
 21
-500.0
 31
0.0
  0
LINE
  5
1473
  8
0
  6
CONTINUOUS
 62
     3
 10
-4832.2
 20
-45.0
 30
0.0
 11
-4695.0
 21
-435.6
 31
0.0
  0
LINE
  5
1474
  8
0
  6
CONTINUOUS
 62
     3
 10
-4947.7
 20
-955.0
 30
0.0
 11
-5267.5
 21
-45.0
 31
0.0
  0
LINE
  5
1475
  8
0
  6
CONTINUOUS
 62
     3
 10
-4902.5
 20
-955.0
 30
0.0
 11
-5222.2
 21
-45.0
 31
0.0
  0
LINE
  5
1476
  8
0
  6
CONTINUOUS
 62
     3
 10
-4557.7
 20
-45.0
 30
0.0
 11
-4877.5
 21
-955.0
 31
0.0
  0
LINE
  5
1477
  8
0
  6
CONTINUOUS
 62
     3
 10
-4512.5
 20
-45.0
 30
0.0
 11
-4832.2
 21
-955.0
 31
0.0
  0
LINE
  5
1478
  8
0
  6
CONTINUOUS
 62
     3
 10
-4305.0
 20
-435.6
 30
0.0
 11
-4167.7
 21
-45.0
 31
0.0
  0
LINE
  5
1479
  8
0
  6
CONTINUOUS
 62
     3
 10
-4282.3
 20
-500.0
 30
0.0
 11
-4122.5
 21
-45.0
 31
0.0
  0
LINE
  5
147A
  8
0
  6
CONTINUOUS
 62
     3
 10
-4097.5
 20
-45.0
 30
0.0
 11
-3937.6
 21
-500.0
 31
0.0
  0
LINE
  5
147B
  8
0
  6
CONTINUOUS
 62
     3
 10
-4052.2
 20
-45.0
 30
0.0
 11
-3915.0
 21
-435.6
 31
0.0
  0
LINE
  5
147C
  8
0
  6
CONTINUOUS
 62
     3
 10
-4167.7
 20
-955.0
 30
0.0
 11
-4487.5
 21
-45.0
 31
0.0
  0
LINE
  5
147D
  8
0
  6
CONTINUOUS
 62
     3
 10
-4122.5
 20
-955.0
 30
0.0
 11
-4442.2
 21
-45.0
 31
0.0
  0
LINE
  5
147E
  8
0
  6
CONTINUOUS
 62
     3
 10
-3777.7
 20
-45.0
 30
0.0
 11
-4097.5
 21
-955.0
 31
0.0
  0
LINE
  5
147F
  8
0
  6
CONTINUOUS
 62
     3
 10
-3732.5
 20
-45.0
 30
0.0
 11
-4052.2
 21
-955.0
 31
0.0
  0
LINE
  5
1480
  8
0
  6
CONTINUOUS
 62
     3
 10
-3525.0
 20
-435.6
 30
0.0
 11
-3387.7
 21
-45.0
 31
0.0
  0
LINE
  5
1481
  8
0
  6
CONTINUOUS
 62
     3
 10
-3502.3
 20
-500.0
 30
0.0
 11
-3342.5
 21
-45.0
 31
0.0
  0
LINE
  5
1482
  8
0
  6
CONTINUOUS
 62
     3
 10
-3317.5
 20
-45.0
 30
0.0
 11
-3157.6
 21
-500.0
 31
0.0
  0
LINE
  5
1483
  8
0
  6
CONTINUOUS
 62
     3
 10
-3272.2
 20
-45.0
 30
0.0
 11
-3135.0
 21
-435.6
 31
0.0
  0
LINE
  5
1484
  8
0
  6
CONTINUOUS
 62
     3
 10
-3387.7
 20
-955.0
 30
0.0
 11
-3707.5
 21
-45.0
 31
0.0
  0
LINE
  5
1485
  8
0
  6
CONTINUOUS
 62
     3
 10
-3342.5
 20
-955.0
 30
0.0
 11
-3662.2
 21
-45.0
 31
0.0
  0
LINE
  5
1486
  8
0
  6
CONTINUOUS
 62
     3
 10
-4672.3
 20
-500.0
 30
0.0
 11
-4512.5
 21
-955.0
 31
0.0
  0
LINE
  5
1487
  8
0
  6
CONTINUOUS
 62
     3
 10
-5475.0
 20
-564.4
 30
0.0
 11
-5337.7
 21
-955.0
 31
0.0
  0
LINE
  5
1488
  8
0
  6
CONTINUOUS
 62
     3
 10
-5452.3
 20
-500.0
 30
0.0
 11
-5292.5
 21
-955.0
 31
0.0
  0
LINE
  5
1489
  8
0
  6
CONTINUOUS
 62
     3
 10
-6002.2
 20
-955.0
 30
0.0
 11
-5865.0
 21
-564.4
 31
0.0
  0
LINE
  5
148A
  8
0
  6
CONTINUOUS
 62
     3
 10
-4695.0
 20
-564.4
 30
0.0
 11
-4557.7
 21
-955.0
 31
0.0
  0
LINE
  5
148B
  8
0
  6
CONTINUOUS
 62
     3
 10
-5267.5
 20
-955.0
 30
0.0
 11
-5107.6
 21
-500.0
 31
0.0
  0
LINE
  5
148C
  8
0
  6
CONTINUOUS
 62
     3
 10
-5222.2
 20
-955.0
 30
0.0
 11
-5085.0
 21
-564.4
 31
0.0
  0
LINE
  5
148D
  8
0
  6
CONTINUOUS
 62
     3
 10
-3915.0
 20
-564.4
 30
0.0
 11
-3777.7
 21
-955.0
 31
0.0
  0
LINE
  5
148E
  8
0
  6
CONTINUOUS
 62
     3
 10
-3892.3
 20
-500.0
 30
0.0
 11
-3732.5
 21
-955.0
 31
0.0
  0
LINE
  5
148F
  8
0
  6
CONTINUOUS
 62
     3
 10
-4487.5
 20
-955.0
 30
0.0
 11
-4327.6
 21
-500.0
 31
0.0
  0
LINE
  5
1490
  8
0
  6
CONTINUOUS
 62
     3
 10
-4442.2
 20
-955.0
 30
0.0
 11
-4305.0
 21
-564.4
 31
0.0
  0
LINE
  5
1491
  8
0
  6
CONTINUOUS
 62
     3
 10
-3707.5
 20
-955.0
 30
0.0
 11
-3547.6
 21
-500.0
 31
0.0
  0
LINE
  5
1492
  8
0
  6
CONTINUOUS
 62
     3
 10
-3662.2
 20
-955.0
 30
0.0
 11
-3525.0
 21
-564.4
 31
0.0
  0
POINT
  5
1493
  8
ô_
 62
     1
 10
0.0
 20
-1000.0
 30
0.0
  0
POINT
  5
1494
  8
ô_
 62
     1
 10
0.0
 20
0.0
 30
0.0
  0
LINE
  5
1495
  8
0
  6
CONTINUOUS
 62
     3
 10
-80.0
 20
52.5
 30
0.0
 11
-8.6
 21
62.4
 31
0.0
  0
LINE
  5
1496
  8
0
  6
CONTINUOUS
 62
     3
 10
-80.0
 20
-52.5
 30
0.0
 11
-8.6
 21
-62.4
 31
0.0
  0
LINE
  5
1497
  8
0
  6
CONTINUOUS
 62
     3
 10
-80.0
 20
-1052.5
 30
0.0
 11
-8.6
 21
-1062.4
 31
0.0
  0
LINE
  5
1498
  8
0
  6
CONTINUOUS
 62
     3
 10
-80.0
 20
-947.5
 30
0.0
 11
-8.6
 21
-937.6
 31
0.0
  0
LINE
  5
1499
  8
0
  6
CONTINUOUS
 62
     3
 10
-257.184516
 20
-45.0
 30
0.0
 11
-399.7
 21
-437.5
 31
0.0
  0
LINE
  5
149A
  8
0
  6
CONTINUOUS
 62
     3
 10
-211.784444
 20
-45.0
 30
0.0
 11
-377.0
 21
-500.0
 31
0.0
  0
LINE
  5
149B
  8
0
  6
CONTINUOUS
 62
     3
 10
-587.7
 20
-45.0
 30
0.0
 11
-257.183978
 21
-955.0
 31
0.0
  0
LINE
  5
149C
  8
0
  6
CONTINUOUS
 62
     3
 10
-542.3
 20
-45.0
 30
0.0
 11
-211.783978
 21
-955.0
 31
0.0
  0
LINE
  5
149D
  8
0
  6
CONTINUOUS
 62
     3
 10
-141.4
 20
-955.0
 30
0.0
 11
-141.4
 21
-45.0
 31
0.0
  0
LINE
  5
149E
  8
0
  6
CONTINUOUS
 62
     3
 10
-188.6
 20
-955.0
 30
0.0
 11
-188.6
 21
-45.0
 31
0.0
  0
LINE
  5
149F
  8
0
  6
CONTINUOUS
 62
     3
 10
-2745.0
 20
-435.6
 30
0.0
 11
-2607.7
 21
-45.0
 31
0.0
  0
LINE
  5
14A0
  8
0
  6
CONTINUOUS
 62
     3
 10
-2722.3
 20
-500.0
 30
0.0
 11
-2562.5
 21
-45.0
 31
0.0
  0
LINE
  5
14A1
  8
0
  6
CONTINUOUS
 62
     3
 10
-2537.5
 20
-45.0
 30
0.0
 11
-2377.6
 21
-500.0
 31
0.0
  0
LINE
  5
14A2
  8
0
  6
CONTINUOUS
 62
     3
 10
-2492.2
 20
-45.0
 30
0.0
 11
-2355.0
 21
-435.6
 31
0.0
  0
LINE
  5
14A3
  8
0
  6
CONTINUOUS
 62
     3
 10
-2607.7
 20
-955.0
 30
0.0
 11
-2927.5
 21
-45.0
 31
0.0
  0
LINE
  5
14A4
  8
0
  6
CONTINUOUS
 62
     3
 10
-2562.5
 20
-955.0
 30
0.0
 11
-2882.2
 21
-45.0
 31
0.0
  0
LINE
  5
14A5
  8
0
  6
CONTINUOUS
 62
     3
 10
-2217.7
 20
-45.0
 30
0.0
 11
-2537.5
 21
-955.0
 31
0.0
  0
LINE
  5
14A6
  8
0
  6
CONTINUOUS
 62
     3
 10
-2172.5
 20
-45.0
 30
0.0
 11
-2492.2
 21
-955.0
 31
0.0
  0
LINE
  5
14A7
  8
0
  6
CONTINUOUS
 62
     3
 10
-1965.0
 20
-435.6
 30
0.0
 11
-1827.7
 21
-45.0
 31
0.0
  0
LINE
  5
14A8
  8
0
  6
CONTINUOUS
 62
     3
 10
-1942.3
 20
-500.0
 30
0.0
 11
-1782.5
 21
-45.0
 31
0.0
  0
LINE
  5
14A9
  8
0
  6
CONTINUOUS
 62
     3
 10
-1757.5
 20
-45.0
 30
0.0
 11
-1597.6
 21
-500.0
 31
0.0
  0
LINE
  5
14AA
  8
0
  6
CONTINUOUS
 62
     3
 10
-1712.2
 20
-45.0
 30
0.0
 11
-1575.0
 21
-435.6
 31
0.0
  0
LINE
  5
14AB
  8
0
  6
CONTINUOUS
 62
     3
 10
-1827.7
 20
-955.0
 30
0.0
 11
-2147.5
 21
-45.0
 31
0.0
  0
LINE
  5
14AC
  8
0
  6
CONTINUOUS
 62
     3
 10
-1782.5
 20
-955.0
 30
0.0
 11
-2102.2
 21
-45.0
 31
0.0
  0
LINE
  5
14AD
  8
0
  6
CONTINUOUS
 62
     3
 10
-1437.7
 20
-45.0
 30
0.0
 11
-1757.5
 21
-955.0
 31
0.0
  0
LINE
  5
14AE
  8
0
  6
CONTINUOUS
 62
     3
 10
-1392.5
 20
-45.0
 30
0.0
 11
-1712.2
 21
-955.0
 31
0.0
  0
LINE
  5
14AF
  8
0
  6
CONTINUOUS
 62
     3
 10
-1185.0
 20
-435.6
 30
0.0
 11
-1047.7
 21
-45.0
 31
0.0
  0
LINE
  5
14B0
  8
0
  6
CONTINUOUS
 62
     3
 10
-1162.3
 20
-500.0
 30
0.0
 11
-1002.5
 21
-45.0
 31
0.0
  0
LINE
  5
14B1
  8
0
  6
CONTINUOUS
 62
     3
 10
-977.5
 20
-45.0
 30
0.0
 11
-817.6
 21
-500.0
 31
0.0
  0
LINE
  5
14B2
  8
0
  6
CONTINUOUS
 62
     3
 10
-932.2
 20
-45.0
 30
0.0
 11
-795.0
 21
-435.6
 31
0.0
  0
LINE
  5
14B3
  8
0
  6
CONTINUOUS
 62
     3
 10
-1047.7
 20
-955.0
 30
0.0
 11
-1367.5
 21
-45.0
 31
0.0
  0
LINE
  5
14B4
  8
0
  6
CONTINUOUS
 62
     3
 10
-1002.5
 20
-955.0
 30
0.0
 11
-1322.2
 21
-45.0
 31
0.0
  0
LINE
  5
14B5
  8
0
  6
CONTINUOUS
 62
     3
 10
-657.7
 20
-45.0
 30
0.0
 11
-977.5
 21
-955.0
 31
0.0
  0
LINE
  5
14B6
  8
0
  6
CONTINUOUS
 62
     3
 10
-612.5
 20
-45.0
 30
0.0
 11
-932.2
 21
-955.0
 31
0.0
  0
LINE
  5
14B7
  8
0
  6
CONTINUOUS
 62
     3
 10
-1575.0
 20
-564.4
 30
0.0
 11
-1437.7
 21
-955.0
 31
0.0
  0
LINE
  5
14B8
  8
0
  6
CONTINUOUS
 62
     3
 10
-2355.0
 20
-564.4
 30
0.0
 11
-2217.7
 21
-955.0
 31
0.0
  0
LINE
  5
14B9
  8
0
  6
CONTINUOUS
 62
     3
 10
-2332.3
 20
-500.0
 30
0.0
 11
-2172.5
 21
-955.0
 31
0.0
  0
LINE
  5
14BA
  8
0
  6
CONTINUOUS
 62
     3
 10
-2927.5
 20
-955.0
 30
0.0
 11
-2767.6
 21
-500.0
 31
0.0
  0
LINE
  5
14BB
  8
0
  6
CONTINUOUS
 62
     3
 10
-2882.2
 20
-955.0
 30
0.0
 11
-2745.0
 21
-564.4
 31
0.0
  0
LINE
  5
14BC
  8
0
  6
CONTINUOUS
 62
     3
 10
-2147.5
 20
-955.0
 30
0.0
 11
-1987.6
 21
-500.0
 31
0.0
  0
LINE
  5
14BD
  8
0
  6
CONTINUOUS
 62
     3
 10
-2102.2
 20
-955.0
 30
0.0
 11
-1965.0
 21
-564.4
 31
0.0
  0
LINE
  5
14BE
  8
0
  6
CONTINUOUS
 62
     3
 10
-1552.3
 20
-500.0
 30
0.0
 11
-1392.5
 21
-955.0
 31
0.0
  0
LINE
  5
14BF
  8
0
  6
CONTINUOUS
 62
     3
 10
-1367.5
 20
-955.0
 30
0.0
 11
-1207.6
 21
-500.0
 31
0.0
  0
LINE
  5
14C0
  8
0
  6
CONTINUOUS
 62
     3
 10
-1322.2
 20
-955.0
 30
0.0
 11
-1185.0
 21
-564.4
 31
0.0
  0
LINE
  5
14C1
  8
0
  6
CONTINUOUS
 62
     3
 10
-399.7
 20
-562.6
 30
0.0
 11
-542.3
 21
-955.0
 31
0.0
  0
LINE
  5
14C2
  8
0
  6
CONTINUOUS
 62
     3
 10
-422.4
 20
-500.0
 30
0.0
 11
-587.7
 21
-955.0
 31
0.0
  0
LINE
  5
14C3
  8
0
  6
CONTINUOUS
 62
     3
 10
-795.0
 20
-564.4
 30
0.0
 11
-657.7
 21
-955.0
 31
0.0
  0
LINE
  5
14C4
  8
0
  6
CONTINUOUS
 62
     3
 10
-772.3
 20
-500.0
 30
0.0
 11
-612.5
 21
-955.0
 31
0.0
  0
LINE
  5
14C5
  8
0
  6
CONTINUOUS
 62
     3
 10
-80.0
 20
-1052.5
 30
0.0
 11
-80.0
 21
-947.5
 31
0.0
  0
LINE
  5
14C6
  8
0
  6
CONTINUOUS
 62
     3
 10
-130.0
 20
-1052.5
 30
0.0
 11
-130.0
 21
-947.5
 31
0.0
  0
LINE
  5
14C7
  8
0
  6
CONTINUOUS
 62
     3
 10
-130.0
 20
-947.5
 30
0.0
 11
-80.0
 21
-947.5
 31
0.0
  0
LINE
  5
14C8
  8
0
  6
CONTINUOUS
 62
     3
 10
-130.0
 20
-1052.5
 30
0.0
 11
-80.0
 21
-1052.5
 31
0.0
  0
LINE
  5
14C9
  8
0
  6
CONTINUOUS
 62
     3
 10
-386.0
 20
-1050.0
 30
0.0
 11
-386.0
 21
-1045.0
 31
0.0
  0
LINE
  5
14CA
  8
0
  6
CONTINUOUS
 62
     3
 10
-386.0
 20
-1050.0
 30
0.0
 11
-130.0
 21
-1050.0
 31
0.0
  0
LINE
  5
14CB
  8
0
  6
CONTINUOUS
 62
     3
 10
-130.0
 20
52.5
 30
0.0
 11
-80.0
 21
52.5
 31
0.0
  0
LINE
  5
14CC
  8
0
  6
CONTINUOUS
 62
     3
 10
-130.0
 20
-52.5
 30
0.0
 11
-80.0
 21
-52.5
 31
0.0
  0
LINE
  5
14CD
  8
0
  6
CONTINUOUS
 62
     3
 10
-80.0
 20
-52.5
 30
0.0
 11
-80.0
 21
52.5
 31
0.0
  0
LINE
  5
14CE
  8
0
  6
CONTINUOUS
 62
     3
 10
-130.0
 20
-52.5
 30
0.0
 11
-130.0
 21
52.5
 31
0.0
  0
LINE
  5
14CF
  8
0
  6
CONTINUOUS
 62
     3
 10
-386.0
 20
45.0
 30
0.0
 11
-386.0
 21
50.0
 31
0.0
  0
LINE
  5
14D0
  8
0
  6
CONTINUOUS
 62
     3
 10
-130.0
 20
50.0
 30
0.0
 11
-386.0
 21
50.0
 31
0.0
  0
ARC
  5
14D1
  8
0
  6
CONTINUOUS
 62
     3
 10
0.0
 20
-1000.0
 30
0.0
 40
63.0001
 50
262.097
 51
97.9029
  0
CIRCLE
  5
14D2
  8
0
  6
CONTINUOUS
 62
     3
 10
0.0
 20
-1000.0
 30
0.0
 40
30.0
  0
ARC
  5
14D3
  8
0
  6
CONTINUOUS
 62
     3
 10
0.0
 20
0.0
 30
0.0
 40
63.0001
 50
262.097
 51
97.9029
  0
CIRCLE
  5
14D4
  8
0
  6
CONTINUOUS
 62
     3
 10
0.0
 20
0.0
 30
0.0
 40
30.0
  0
ENDBLK
  5
14D5
  8
0
  0
BLOCK
  8
0
  2
B110123
 70
     0
 10
0.0
 20
0.0
 30
0.0
  3
B110123
  1

  0
LINE
  5
1597
  8
0
  6
CONTINUOUS
 62
     3
 10
-4305.0
 20
-435.6
 30
0.0
 11
-4167.7
 21
-45.0
 31
0.0
  0
LINE
  5
1598
  8
0
  6
CONTINUOUS
 62
     3
 10
-4167.7
 20
-955.0
 30
0.0
 11
-4487.5
 21
-45.0
 31
0.0
  0
LINE
  5
1599
  8
0
  6
CONTINUOUS
 62
     3
 10
-4122.5
 20
-955.0
 30
0.0
 11
-4442.2
 21
-45.0
 31
0.0
  0
LINE
  5
159A
  8
0
  6
CONTINUOUS
 62
     3
 10
-8614.0
 20
-1045.0
 30
0.0
 11
-386.0
 21
-1045.0
 31
0.0
  0
LINE
  5
159B
  8
0
  6
CONTINUOUS
 62
     3
 10
-8870.0
 20
-955.0
 30
0.0
 11
-130.0
 21
-955.0
 31
0.0
  0
LINE
  5
159C
  8
0
  6
CONTINUOUS
 62
     3
 10
-130.0
 20
-45.0
 30
0.0
 11
-8870.0
 21
-45.0
 31
0.0
  0
LINE
  5
159D
  8
0
  6
CONTINUOUS
 62
     3
 10
-386.0
 20
45.0
 30
0.0
 11
-8614.0
 21
45.0
 31
0.0
  0
LINE
  5
159E
  8
0
  6
CONTINUOUS
 62
     3
 10
-7402.3
 20
-500.0
 30
0.0
 11
-7242.4
 21
-45.0
 31
0.0
  0
LINE
  5
159F
  8
0
  6
CONTINUOUS
 62
     3
 10
-7242.5
 20
-955.0
 30
0.0
 11
-7562.2
 21
-45.0
 31
0.0
  0
POINT
  5
15A0
  8
ô_
 62
     1
 10
-9000.0
 20
0.0
 30
0.0
  0
ARC
  5
15A1
  8
0
  6
CONTINUOUS
 62
     3
 10
-9000.0
 20
0.0
 30
0.0
 40
63.0001
 50
82.097
 51
277.9029
  0
CIRCLE
  5
15A2
  8
0
  6
CONTINUOUS
 62
     3
 10
-9000.0
 20
0.0
 30
0.0
 40
30.0
  0
LINE
  5
15A3
  8
0
  6
CONTINUOUS
 62
     3
 10
-8920.0
 20
52.5
 30
0.0
 11
-8920.0
 21
-52.5
 31
0.0
  0
LINE
  5
15A4
  8
0
  6
CONTINUOUS
 62
     3
 10
-8870.0
 20
52.5
 30
0.0
 11
-8870.0
 21
-52.5
 31
0.0
  0
POINT
  5
15A5
  8
ô_
 62
     1
 10
-9000.0
 20
-1000.0
 30
0.0
  0
LINE
  5
15A6
  8
0
  6
CONTINUOUS
 62
     3
 10
-8622.9
 20
-500.0
 30
0.0
 11
-8788.115556
 21
-45.0
 31
0.0
  0
LINE
  5
15A7
  8
0
  6
CONTINUOUS
 62
     3
 10
-8788.11547
 20
-955.0
 30
0.0
 11
-8457.7
 21
-45.0
 31
0.0
  0
LINE
  5
15A8
  8
0
  6
CONTINUOUS
 62
     3
 10
-8870.0
 20
-1050.0
 30
0.0
 11
-8614.0
 21
-1050.0
 31
0.0
  0
LINE
  5
15A9
  8
0
  6
CONTINUOUS
 62
     3
 10
-8858.6
 20
-45.0
 30
0.0
 11
-8858.6
 21
-955.0
 31
0.0
  0
LINE
  5
15AA
  8
0
  6
CONTINUOUS
 62
     3
 10
-8811.4
 20
-45.0
 30
0.0
 11
-8811.4
 21
-955.0
 31
0.0
  0
ARC
  5
15AB
  8
0
  6
CONTINUOUS
 62
     3
 10
-9000.0
 20
-1000.0
 30
0.0
 40
63.0001
 50
82.097
 51
277.9029
  0
CIRCLE
  5
15AC
  8
0
  6
CONTINUOUS
 62
     3
 10
-9000.0
 20
-1000.0
 30
0.0
 40
30.0
  0
LINE
  5
15AD
  8
0
  6
CONTINUOUS
 62
     3
 10
-8920.0
 20
-1052.5
 30
0.0
 11
-8991.4
 21
-1062.4
 31
0.0
  0
LINE
  5
15AE
  8
0
  6
CONTINUOUS
 62
     3
 10
-8920.0
 20
-947.5
 30
0.0
 11
-8991.4
 21
-937.6
 31
0.0
  0
LINE
  5
15AF
  8
0
  6
CONTINUOUS
 62
     3
 10
-8920.0
 20
-947.5
 30
0.0
 11
-8920.0
 21
-1052.5
 31
0.0
  0
LINE
  5
15B0
  8
0
  6
CONTINUOUS
 62
     3
 10
-8870.0
 20
-947.5
 30
0.0
 11
-8870.0
 21
-1052.5
 31
0.0
  0
LINE
  5
15B1
  8
0
  6
CONTINUOUS
 62
     3
 10
-8920.0
 20
-947.5
 30
0.0
 11
-8870.0
 21
-947.5
 31
0.0
  0
LINE
  5
15B2
  8
0
  6
CONTINUOUS
 62
     3
 10
-8920.0
 20
-1052.5
 30
0.0
 11
-8870.0
 21
-1052.5
 31
0.0
  0
LINE
  5
15B3
  8
0
  6
CONTINUOUS
 62
     3
 10
-8920.0
 20
-52.5
 30
0.0
 11
-8991.4
 21
-62.4
 31
0.0
  0
LINE
  5
15B4
  8
0
  6
CONTINUOUS
 62
     3
 10
-8920.0
 20
-52.5
 30
0.0
 11
-8870.0
 21
-52.5
 31
0.0
  0
LINE
  5
15B5
  8
0
  6
CONTINUOUS
 62
     3
 10
-8412.2
 20
-955.0
 30
0.0
 11
-8577.5
 21
-500.0
 31
0.0
  0
LINE
  5
15B6
  8
0
  6
CONTINUOUS
 62
     3
 10
-8742.716022
 20
-955.0
 30
0.0
 11
-8412.2
 21
-45.0
 31
0.0
  0
LINE
  5
15B7
  8
0
  6
CONTINUOUS
 62
     3
 10
-8387.4
 20
-955.0
 30
0.0
 11
-8227.6
 21
-500.0
 31
0.0
  0
LINE
  5
15B8
  8
0
  6
CONTINUOUS
 62
     3
 10
-8067.7
 20
-955.0
 30
0.0
 11
-8387.5
 21
-45.0
 31
0.0
  0
LINE
  5
15B9
  8
0
  6
CONTINUOUS
 62
     3
 10
-8022.5
 20
-955.0
 30
0.0
 11
-8342.2
 21
-45.0
 31
0.0
  0
LINE
  5
15BA
  8
0
  6
CONTINUOUS
 62
     3
 10
-8457.7
 20
-955.0
 30
0.0
 11
-8600.2
 21
-562.5
 31
0.0
  0
LINE
  5
15BB
  8
0
  6
CONTINUOUS
 62
     3
 10
-8614.0
 20
-1045.0
 30
0.0
 11
-8614.0
 21
-1050.0
 31
0.0
  0
LINE
  5
15BC
  8
0
  6
CONTINUOUS
 62
     3
 10
-8342.2
 20
-955.0
 30
0.0
 11
-8204.9
 21
-564.4
 31
0.0
  0
LINE
  5
15BD
  8
0
  6
CONTINUOUS
 62
     3
 10
-8600.2
 20
-437.4
 30
0.0
 11
-8742.715953
 21
-45.0
 31
0.0
  0
LINE
  5
15BE
  8
0
  6
CONTINUOUS
 62
     3
 10
-8204.9
 20
-435.6
 30
0.0
 11
-8067.7
 21
-45.0
 31
0.0
  0
LINE
  5
15BF
  8
0
  6
CONTINUOUS
 62
     3
 10
-8182.3
 20
-500.0
 30
0.0
 11
-8022.4
 21
-45.0
 31
0.0
  0
LINE
  5
15C0
  8
0
  6
CONTINUOUS
 62
     3
 10
-7607.5
 20
-955.0
 30
0.0
 11
-7447.6
 21
-500.0
 31
0.0
  0
LINE
  5
15C1
  8
0
  6
CONTINUOUS
 62
     3
 10
-7287.7
 20
-955.0
 30
0.0
 11
-7607.5
 21
-45.0
 31
0.0
  0
LINE
  5
15C2
  8
0
  6
CONTINUOUS
 62
     3
 10
-7792.3
 20
-500.0
 30
0.0
 11
-7632.5
 21
-955.0
 31
0.0
  0
LINE
  5
15C3
  8
0
  6
CONTINUOUS
 62
     3
 10
-7677.7
 20
-45.0
 30
0.0
 11
-7997.5
 21
-955.0
 31
0.0
  0
LINE
  5
15C4
  8
0
  6
CONTINUOUS
 62
     3
 10
-7632.5
 20
-45.0
 30
0.0
 11
-7952.2
 21
-955.0
 31
0.0
  0
LINE
  5
15C5
  8
0
  6
CONTINUOUS
 62
     3
 10
-7815.0
 20
-564.4
 30
0.0
 11
-7677.7
 21
-955.0
 31
0.0
  0
LINE
  5
15C6
  8
0
  6
CONTINUOUS
 62
     3
 10
-7562.2
 20
-955.0
 30
0.0
 11
-7424.9
 21
-564.4
 31
0.0
  0
LINE
  5
15C7
  8
0
  6
CONTINUOUS
 62
     3
 10
-7997.5
 20
-45.0
 30
0.0
 11
-7837.6
 21
-500.0
 31
0.0
  0
LINE
  5
15C8
  8
0
  6
CONTINUOUS
 62
     3
 10
-7952.2
 20
-45.0
 30
0.0
 11
-7815.0
 21
-435.6
 31
0.0
  0
LINE
  5
15C9
  8
0
  6
CONTINUOUS
 62
     3
 10
-7425.0
 20
-435.6
 30
0.0
 11
-7287.7
 21
-45.0
 31
0.0
  0
LINE
  5
15CA
  8
0
  6
CONTINUOUS
 62
     3
 10
-8833.1
 20
152.1
 30
0.0
 11
-8550.0
 21
51.0
 31
0.0
  0
LINE
  5
15CB
  8
0
  6
CONTINUOUS
 62
     3
 10
-8614.0
 20
50.0
 30
0.0
 11
-8870.0
 21
50.0
 31
0.0
  0
CIRCLE
  5
15CC
  8
0
  6
CONTINUOUS
 62
     3
 10
-8850.0
 20
105.0
 30
0.0
 40
35.0
  0
ARC
  5
15CD
  8
0
  6
CONTINUOUS
 62
     3
 10
-8850.0
 20
105.0
 30
0.0
 40
49.9999
 50
70.3538
 51
180.799
  0
LINE
  5
15CE
  8
0
  6
CONTINUOUS
 62
     3
 10
-8920.0
 20
52.5
 30
0.0
 11
-8991.4
 21
62.4
 31
0.0
  0
LINE
  5
15CF
  8
0
  6
CONTINUOUS
 62
     3
 10
-8900.0
 20
105.7
 30
0.0
 11
-8900.0
 21
52.5
 31
0.0
  0
LINE
  5
15D0
  8
0
  6
CONTINUOUS
 62
     3
 10
-8920.0
 20
52.5
 30
0.0
 11
-8870.0
 21
52.5
 31
0.0
  0
LINE
  5
15D1
  8
0
  6
CONTINUOUS
 62
     3
 10
-8550.0
 20
51.0
 30
0.0
 11
-8550.0
 21
45.0
 31
0.0
  0
LINE
  5
15D2
  8
0
  6
CONTINUOUS
 62
     3
 10
-8614.0
 20
50.0
 30
0.0
 11
-8614.0
 21
45.0
 31
0.0
  0
LINE
  5
15D3
  8
0
  6
CONTINUOUS
 62
     3
 10
-5865.0
 20
-435.6
 30
0.0
 11
-5727.7
 21
-45.0
 31
0.0
  0
LINE
  5
15D4
  8
0
  6
CONTINUOUS
 62
     3
 10
-5842.3
 20
-500.0
 30
0.0
 11
-5682.5
 21
-45.0
 31
0.0
  0
LINE
  5
15D5
  8
0
  6
CONTINUOUS
 62
     3
 10
-5727.7
 20
-955.0
 30
0.0
 11
-6047.5
 21
-45.0
 31
0.0
  0
LINE
  5
15D6
  8
0
  6
CONTINUOUS
 62
     3
 10
-5682.5
 20
-955.0
 30
0.0
 11
-6002.2
 21
-45.0
 31
0.0
  0
LINE
  5
15D7
  8
0
  6
CONTINUOUS
 62
     3
 10
-6645.0
 20
-435.6
 30
0.0
 11
-6507.7
 21
-45.0
 31
0.0
  0
LINE
  5
15D8
  8
0
  6
CONTINUOUS
 62
     3
 10
-6622.3
 20
-500.0
 30
0.0
 11
-6462.5
 21
-45.0
 31
0.0
  0
LINE
  5
15D9
  8
0
  6
CONTINUOUS
 62
     3
 10
-6507.7
 20
-955.0
 30
0.0
 11
-6827.5
 21
-45.0
 31
0.0
  0
LINE
  5
15DA
  8
0
  6
CONTINUOUS
 62
     3
 10
-6462.5
 20
-955.0
 30
0.0
 11
-6782.2
 21
-45.0
 31
0.0
  0
LINE
  5
15DB
  8
0
  6
CONTINUOUS
 62
     3
 10
-7012.3
 20
-500.0
 30
0.0
 11
-6852.5
 21
-955.0
 31
0.0
  0
LINE
  5
15DC
  8
0
  6
CONTINUOUS
 62
     3
 10
-6897.7
 20
-45.0
 30
0.0
 11
-7217.5
 21
-955.0
 31
0.0
  0
LINE
  5
15DD
  8
0
  6
CONTINUOUS
 62
     3
 10
-6852.5
 20
-45.0
 30
0.0
 11
-7172.2
 21
-955.0
 31
0.0
  0
LINE
  5
15DE
  8
0
  6
CONTINUOUS
 62
     3
 10
-6827.5
 20
-955.0
 30
0.0
 11
-6667.6
 21
-500.0
 31
0.0
  0
LINE
  5
15DF
  8
0
  6
CONTINUOUS
 62
     3
 10
-7035.0
 20
-564.4
 30
0.0
 11
-6897.7
 21
-955.0
 31
0.0
  0
LINE
  5
15E0
  8
0
  6
CONTINUOUS
 62
     3
 10
-6782.2
 20
-955.0
 30
0.0
 11
-6645.0
 21
-564.4
 31
0.0
  0
LINE
  5
15E1
  8
0
  6
CONTINUOUS
 62
     3
 10
-7217.5
 20
-45.0
 30
0.0
 11
-7057.6
 21
-500.0
 31
0.0
  0
LINE
  5
15E2
  8
0
  6
CONTINUOUS
 62
     3
 10
-7172.2
 20
-45.0
 30
0.0
 11
-7035.0
 21
-435.6
 31
0.0
  0
LINE
  5
15E3
  8
0
  6
CONTINUOUS
 62
     3
 10
-6232.3
 20
-500.0
 30
0.0
 11
-6072.5
 21
-955.0
 31
0.0
  0
LINE
  5
15E4
  8
0
  6
CONTINUOUS
 62
     3
 10
-6117.7
 20
-45.0
 30
0.0
 11
-6437.5
 21
-955.0
 31
0.0
  0
LINE
  5
15E5
  8
0
  6
CONTINUOUS
 62
     3
 10
-6072.5
 20
-45.0
 30
0.0
 11
-6392.2
 21
-955.0
 31
0.0
  0
LINE
  5
15E6
  8
0
  6
CONTINUOUS
 62
     3
 10
-6047.5
 20
-955.0
 30
0.0
 11
-5887.6
 21
-500.0
 31
0.0
  0
LINE
  5
15E7
  8
0
  6
CONTINUOUS
 62
     3
 10
-6255.0
 20
-564.4
 30
0.0
 11
-6117.7
 21
-955.0
 31
0.0
  0
LINE
  5
15E8
  8
0
  6
CONTINUOUS
 62
     3
 10
-6002.2
 20
-955.0
 30
0.0
 11
-5865.0
 21
-564.4
 31
0.0
  0
LINE
  5
15E9
  8
0
  6
CONTINUOUS
 62
     3
 10
-6437.5
 20
-45.0
 30
0.0
 11
-6277.6
 21
-500.0
 31
0.0
  0
LINE
  5
15EA
  8
0
  6
CONTINUOUS
 62
     3
 10
-6392.2
 20
-45.0
 30
0.0
 11
-6255.0
 21
-435.6
 31
0.0
  0
LINE
  5
15EB
  8
0
  6
CONTINUOUS
 62
     3
 10
-5085.0
 20
-435.6
 30
0.0
 11
-4947.7
 21
-45.0
 31
0.0
  0
LINE
  5
15EC
  8
0
  6
CONTINUOUS
 62
     3
 10
-5062.3
 20
-500.0
 30
0.0
 11
-4902.5
 21
-45.0
 31
0.0
  0
LINE
  5
15ED
  8
0
  6
CONTINUOUS
 62
     3
 10
-4947.7
 20
-955.0
 30
0.0
 11
-5267.5
 21
-45.0
 31
0.0
  0
LINE
  5
15EE
  8
0
  6
CONTINUOUS
 62
     3
 10
-4902.5
 20
-955.0
 30
0.0
 11
-5222.2
 21
-45.0
 31
0.0
  0
LINE
  5
15EF
  8
0
  6
CONTINUOUS
 62
     3
 10
-5452.3
 20
-500.0
 30
0.0
 11
-5292.5
 21
-955.0
 31
0.0
  0
LINE
  5
15F0
  8
0
  6
CONTINUOUS
 62
     3
 10
-5337.7
 20
-45.0
 30
0.0
 11
-5657.5
 21
-955.0
 31
0.0
  0
LINE
  5
15F1
  8
0
  6
CONTINUOUS
 62
     3
 10
-5292.5
 20
-45.0
 30
0.0
 11
-5612.2
 21
-955.0
 31
0.0
  0
LINE
  5
15F2
  8
0
  6
CONTINUOUS
 62
     3
 10
-5267.5
 20
-955.0
 30
0.0
 11
-5107.6
 21
-500.0
 31
0.0
  0
LINE
  5
15F3
  8
0
  6
CONTINUOUS
 62
     3
 10
-5475.0
 20
-564.4
 30
0.0
 11
-5337.7
 21
-955.0
 31
0.0
  0
LINE
  5
15F4
  8
0
  6
CONTINUOUS
 62
     3
 10
-5222.2
 20
-955.0
 30
0.0
 11
-5085.0
 21
-564.4
 31
0.0
  0
LINE
  5
15F5
  8
0
  6
CONTINUOUS
 62
     3
 10
-5657.5
 20
-45.0
 30
0.0
 11
-5497.6
 21
-500.0
 31
0.0
  0
LINE
  5
15F6
  8
0
  6
CONTINUOUS
 62
     3
 10
-5612.2
 20
-45.0
 30
0.0
 11
-5475.0
 21
-435.6
 31
0.0
  0
LINE
  5
15F7
  8
0
  6
CONTINUOUS
 62
     3
 10
-4672.3
 20
-500.0
 30
0.0
 11
-4512.5
 21
-955.0
 31
0.0
  0
LINE
  5
15F8
  8
0
  6
CONTINUOUS
 62
     3
 10
-4557.7
 20
-45.0
 30
0.0
 11
-4877.5
 21
-955.0
 31
0.0
  0
LINE
  5
15F9
  8
0
  6
CONTINUOUS
 62
     3
 10
-4512.5
 20
-45.0
 30
0.0
 11
-4832.2
 21
-955.0
 31
0.0
  0
LINE
  5
15FA
  8
0
  6
CONTINUOUS
 62
     3
 10
-4487.5
 20
-955.0
 30
0.0
 11
-4327.6
 21
-500.0
 31
0.0
  0
LINE
  5
15FB
  8
0
  6
CONTINUOUS
 62
     3
 10
-4695.0
 20
-564.4
 30
0.0
 11
-4557.7
 21
-955.0
 31
0.0
  0
LINE
  5
15FC
  8
0
  6
CONTINUOUS
 62
     3
 10
-4442.2
 20
-955.0
 30
0.0
 11
-4305.0
 21
-564.4
 31
0.0
  0
LINE
  5
15FD
  8
0
  6
CONTINUOUS
 62
     3
 10
-4877.5
 20
-45.0
 30
0.0
 11
-4717.6
 21
-500.0
 31
0.0
  0
LINE
  5
15FE
  8
0
  6
CONTINUOUS
 62
     3
 10
-4832.2
 20
-45.0
 30
0.0
 11
-4695.0
 21
-435.6
 31
0.0
  0
LINE
  5
15FF
  8
0
  6
CONTINUOUS
 62
     3
 10
-1367.5
 20
-955.0
 30
0.0
 11
-1207.6
 21
-500.0
 31
0.0
  0
LINE
  5
1600
  8
0
  6
CONTINUOUS
 62
     3
 10
-1047.7
 20
-955.0
 30
0.0
 11
-1367.5
 21
-45.0
 31
0.0
  0
LINE
  5
1601
  8
0
  6
CONTINUOUS
 62
     3
 10
-2927.5
 20
-955.0
 30
0.0
 11
-2767.6
 21
-500.0
 31
0.0
  0
LINE
  5
1602
  8
0
  6
CONTINUOUS
 62
     3
 10
-2882.2
 20
-955.0
 30
0.0
 11
-2745.0
 21
-564.4
 31
0.0
  0
LINE
  5
1603
  8
0
  6
CONTINUOUS
 62
     3
 10
-2607.7
 20
-955.0
 30
0.0
 11
-2927.5
 21
-45.0
 31
0.0
  0
LINE
  5
1604
  8
0
  6
CONTINUOUS
 62
     3
 10
-2562.5
 20
-955.0
 30
0.0
 11
-2882.2
 21
-45.0
 31
0.0
  0
LINE
  5
1605
  8
0
  6
CONTINUOUS
 62
     3
 10
-3707.5
 20
-955.0
 30
0.0
 11
-3547.6
 21
-500.0
 31
0.0
  0
LINE
  5
1606
  8
0
  6
CONTINUOUS
 62
     3
 10
-3662.2
 20
-955.0
 30
0.0
 11
-3525.0
 21
-564.4
 31
0.0
  0
LINE
  5
1607
  8
0
  6
CONTINUOUS
 62
     3
 10
-3387.7
 20
-955.0
 30
0.0
 11
-3707.5
 21
-45.0
 31
0.0
  0
LINE
  5
1608
  8
0
  6
CONTINUOUS
 62
     3
 10
-3342.5
 20
-955.0
 30
0.0
 11
-3662.2
 21
-45.0
 31
0.0
  0
LINE
  5
1609
  8
0
  6
CONTINUOUS
 62
     3
 10
-3892.3
 20
-500.0
 30
0.0
 11
-3732.5
 21
-955.0
 31
0.0
  0
LINE
  5
160A
  8
0
  6
CONTINUOUS
 62
     3
 10
-3777.7
 20
-45.0
 30
0.0
 11
-4097.5
 21
-955.0
 31
0.0
  0
LINE
  5
160B
  8
0
  6
CONTINUOUS
 62
     3
 10
-3732.5
 20
-45.0
 30
0.0
 11
-4052.2
 21
-955.0
 31
0.0
  0
LINE
  5
160C
  8
0
  6
CONTINUOUS
 62
     3
 10
-3915.0
 20
-564.4
 30
0.0
 11
-3777.7
 21
-955.0
 31
0.0
  0
LINE
  5
160D
  8
0
  6
CONTINUOUS
 62
     3
 10
-4052.2
 20
-45.0
 30
0.0
 11
-3915.0
 21
-435.6
 31
0.0
  0
LINE
  5
160E
  8
0
  6
CONTINUOUS
 62
     3
 10
-4282.3
 20
-500.0
 30
0.0
 11
-4122.5
 21
-45.0
 31
0.0
  0
LINE
  5
160F
  8
0
  6
CONTINUOUS
 62
     3
 10
-4097.5
 20
-45.0
 30
0.0
 11
-3937.6
 21
-500.0
 31
0.0
  0
LINE
  5
1610
  8
0
  6
CONTINUOUS
 62
     3
 10
-3112.3
 20
-500.0
 30
0.0
 11
-2952.5
 21
-955.0
 31
0.0
  0
LINE
  5
1611
  8
0
  6
CONTINUOUS
 62
     3
 10
-2997.7
 20
-45.0
 30
0.0
 11
-3317.5
 21
-955.0
 31
0.0
  0
LINE
  5
1612
  8
0
  6
CONTINUOUS
 62
     3
 10
-2952.5
 20
-45.0
 30
0.0
 11
-3272.2
 21
-955.0
 31
0.0
  0
LINE
  5
1613
  8
0
  6
CONTINUOUS
 62
     3
 10
-3135.0
 20
-564.4
 30
0.0
 11
-2997.7
 21
-955.0
 31
0.0
  0
LINE
  5
1614
  8
0
  6
CONTINUOUS
 62
     3
 10
-3317.5
 20
-45.0
 30
0.0
 11
-3157.6
 21
-500.0
 31
0.0
  0
LINE
  5
1615
  8
0
  6
CONTINUOUS
 62
     3
 10
-3272.2
 20
-45.0
 30
0.0
 11
-3135.0
 21
-435.6
 31
0.0
  0
LINE
  5
1616
  8
0
  6
CONTINUOUS
 62
     3
 10
-3525.0
 20
-435.6
 30
0.0
 11
-3387.7
 21
-45.0
 31
0.0
  0
LINE
  5
1617
  8
0
  6
CONTINUOUS
 62
     3
 10
-3502.3
 20
-500.0
 30
0.0
 11
-3342.5
 21
-45.0
 31
0.0
  0
LINE
  5
1618
  8
0
  6
CONTINUOUS
 62
     3
 10
-2147.5
 20
-955.0
 30
0.0
 11
-1987.6
 21
-500.0
 31
0.0
  0
LINE
  5
1619
  8
0
  6
CONTINUOUS
 62
     3
 10
-2102.2
 20
-955.0
 30
0.0
 11
-1965.0
 21
-564.4
 31
0.0
  0
LINE
  5
161A
  8
0
  6
CONTINUOUS
 62
     3
 10
-1827.7
 20
-955.0
 30
0.0
 11
-2147.5
 21
-45.0
 31
0.0
  0
LINE
  5
161B
  8
0
  6
CONTINUOUS
 62
     3
 10
-1782.5
 20
-955.0
 30
0.0
 11
-2102.2
 21
-45.0
 31
0.0
  0
LINE
  5
161C
  8
0
  6
CONTINUOUS
 62
     3
 10
-2332.3
 20
-500.0
 30
0.0
 11
-2172.5
 21
-955.0
 31
0.0
  0
LINE
  5
161D
  8
0
  6
CONTINUOUS
 62
     3
 10
-2217.7
 20
-45.0
 30
0.0
 11
-2537.5
 21
-955.0
 31
0.0
  0
LINE
  5
161E
  8
0
  6
CONTINUOUS
 62
     3
 10
-2172.5
 20
-45.0
 30
0.0
 11
-2492.2
 21
-955.0
 31
0.0
  0
LINE
  5
161F
  8
0
  6
CONTINUOUS
 62
     3
 10
-2355.0
 20
-564.4
 30
0.0
 11
-2217.7
 21
-955.0
 31
0.0
  0
LINE
  5
1620
  8
0
  6
CONTINUOUS
 62
     3
 10
-2537.5
 20
-45.0
 30
0.0
 11
-2377.6
 21
-500.0
 31
0.0
  0
LINE
  5
1621
  8
0
  6
CONTINUOUS
 62
     3
 10
-2492.2
 20
-45.0
 30
0.0
 11
-2355.0
 21
-435.6
 31
0.0
  0
LINE
  5
1622
  8
0
  6
CONTINUOUS
 62
     3
 10
-2745.0
 20
-435.6
 30
0.0
 11
-2607.7
 21
-45.0
 31
0.0
  0
LINE
  5
1623
  8
0
  6
CONTINUOUS
 62
     3
 10
-2722.3
 20
-500.0
 30
0.0
 11
-2562.5
 21
-45.0
 31
0.0
  0
LINE
  5
1624
  8
0
  6
CONTINUOUS
 62
     3
 10
-1552.3
 20
-500.0
 30
0.0
 11
-1392.5
 21
-955.0
 31
0.0
  0
LINE
  5
1625
  8
0
  6
CONTINUOUS
 62
     3
 10
-1437.7
 20
-45.0
 30
0.0
 11
-1757.5
 21
-955.0
 31
0.0
  0
LINE
  5
1626
  8
0
  6
CONTINUOUS
 62
     3
 10
-1392.5
 20
-45.0
 30
0.0
 11
-1712.2
 21
-955.0
 31
0.0
  0
LINE
  5
1627
  8
0
  6
CONTINUOUS
 62
     3
 10
-1575.0
 20
-564.4
 30
0.0
 11
-1437.7
 21
-955.0
 31
0.0
  0
LINE
  5
1628
  8
0
  6
CONTINUOUS
 62
     3
 10
-1757.5
 20
-45.0
 30
0.0
 11
-1597.6
 21
-500.0
 31
0.0
  0
LINE
  5
1629
  8
0
  6
CONTINUOUS
 62
     3
 10
-1712.2
 20
-45.0
 30
0.0
 11
-1575.0
 21
-435.6
 31
0.0
  0
LINE
  5
162A
  8
0
  6
CONTINUOUS
 62
     3
 10
-1965.0
 20
-435.6
 30
0.0
 11
-1827.7
 21
-45.0
 31
0.0
  0
LINE
  5
162B
  8
0
  6
CONTINUOUS
 62
     3
 10
-1942.3
 20
-500.0
 30
0.0
 11
-1782.5
 21
-45.0
 31
0.0
  0
POINT
  5
162C
  8
ô_
 62
     1
 10
0.0
 20
0.0
 30
0.0
  0
ARC
  5
162D
  8
0
  6
CONTINUOUS
 62
     3
 10
0.0
 20
0.0
 30
0.0
 40
63.0001
 50
262.097
 51
97.9029
  0
CIRCLE
  5
162E
  8
0
  6
CONTINUOUS
 62
     3
 10
0.0
 20
0.0
 30
0.0
 40
30.0
  0
LINE
  5
162F
  8
0
  6
CONTINUOUS
 62
     3
 10
-80.0
 20
-52.5
 30
0.0
 11
-80.0
 21
52.5
 31
0.0
  0
LINE
  5
1630
  8
0
  6
CONTINUOUS
 62
     3
 10
-130.0
 20
-52.5
 30
0.0
 11
-130.0
 21
52.5
 31
0.0
  0
POINT
  5
1631
  8
ô_
 62
     1
 10
0.0
 20
-1000.0
 30
0.0
  0
LINE
  5
1632
  8
0
  6
CONTINUOUS
 62
     3
 10
-422.4
 20
-500.0
 30
0.0
 11
-587.7
 21
-955.0
 31
0.0
  0
LINE
  5
1633
  8
0
  6
CONTINUOUS
 62
     3
 10
-587.7
 20
-45.0
 30
0.0
 11
-257.183978
 21
-955.0
 31
0.0
  0
LINE
  5
1634
  8
0
  6
CONTINUOUS
 62
     3
 10
-772.3
 20
-500.0
 30
0.0
 11
-612.5
 21
-955.0
 31
0.0
  0
LINE
  5
1635
  8
0
  6
CONTINUOUS
 62
     3
 10
-1002.5
 20
-955.0
 30
0.0
 11
-1322.2
 21
-45.0
 31
0.0
  0
LINE
  5
1636
  8
0
  6
CONTINUOUS
 62
     3
 10
-657.7
 20
-45.0
 30
0.0
 11
-977.5
 21
-955.0
 31
0.0
  0
LINE
  5
1637
  8
0
  6
CONTINUOUS
 62
     3
 10
-612.5
 20
-45.0
 30
0.0
 11
-932.2
 21
-955.0
 31
0.0
  0
LINE
  5
1638
  8
0
  6
CONTINUOUS
 62
     3
 10
-1322.2
 20
-955.0
 30
0.0
 11
-1185.0
 21
-564.4
 31
0.0
  0
LINE
  5
1639
  8
0
  6
CONTINUOUS
 62
     3
 10
-795.0
 20
-564.4
 30
0.0
 11
-657.7
 21
-955.0
 31
0.0
  0
LINE
  5
163A
  8
0
  6
CONTINUOUS
 62
     3
 10
-977.5
 20
-45.0
 30
0.0
 11
-817.6
 21
-500.0
 31
0.0
  0
LINE
  5
163B
  8
0
  6
CONTINUOUS
 62
     3
 10
-1185.0
 20
-435.6
 30
0.0
 11
-1047.7
 21
-45.0
 31
0.0
  0
LINE
  5
163C
  8
0
  6
CONTINUOUS
 62
     3
 10
-1162.3
 20
-500.0
 30
0.0
 11
-1002.5
 21
-45.0
 31
0.0
  0
LINE
  5
163D
  8
0
  6
CONTINUOUS
 62
     3
 10
-932.2
 20
-45.0
 30
0.0
 11
-795.0
 21
-435.6
 31
0.0
  0
LINE
  5
163E
  8
0
  6
CONTINUOUS
 62
     3
 10
-542.3
 20
-45.0
 30
0.0
 11
-211.783978
 21
-955.0
 31
0.0
  0
LINE
  5
163F
  8
0
  6
CONTINUOUS
 62
     3
 10
-141.4
 20
-955.0
 30
0.0
 11
-141.4
 21
-45.0
 31
0.0
  0
LINE
  5
1640
  8
0
  6
CONTINUOUS
 62
     3
 10
-188.6
 20
-955.0
 30
0.0
 11
-188.6
 21
-45.0
 31
0.0
  0
LINE
  5
1641
  8
0
  6
CONTINUOUS
 62
     3
 10
-386.0
 20
-1050.0
 30
0.0
 11
-130.0
 21
-1050.0
 31
0.0
  0
LINE
  5
1642
  8
0
  6
CONTINUOUS
 62
     3
 10
-399.7
 20
-562.5
 30
0.0
 11
-542.3
 21
-955.0
 31
0.0
  0
LINE
  5
1643
  8
0
  6
CONTINUOUS
 62
     3
 10
-386.0
 20
-1050.0
 30
0.0
 11
-386.0
 21
-1045.0
 31
0.0
  0
ARC
  5
1644
  8
0
  6
CONTINUOUS
 62
     3
 10
0.0
 20
-1000.0
 30
0.0
 40
63.0001
 50
262.097
 51
97.9029
  0
CIRCLE
  5
1645
  8
0
  6
CONTINUOUS
 62
     3
 10
0.0
 20
-1000.0
 30
0.0
 40
30.0
  0
LINE
  5
1646
  8
0
  6
CONTINUOUS
 62
     3
 10
-80.0
 20
-1052.5
 30
0.0
 11
-80.0
 21
-947.5
 31
0.0
  0
LINE
  5
1647
  8
0
  6
CONTINUOUS
 62
     3
 10
-80.0
 20
-1052.5
 30
0.0
 11
-8.6
 21
-1062.4
 31
0.0
  0
LINE
  5
1648
  8
0
  6
CONTINUOUS
 62
     3
 10
-80.0
 20
-947.5
 30
0.0
 11
-8.6
 21
-937.6
 31
0.0
  0
LINE
  5
1649
  8
0
  6
CONTINUOUS
 62
     3
 10
-130.0
 20
-1052.5
 30
0.0
 11
-130.0
 21
-947.5
 31
0.0
  0
LINE
  5
164A
  8
0
  6
CONTINUOUS
 62
     3
 10
-130.0
 20
-947.5
 30
0.0
 11
-80.0
 21
-947.5
 31
0.0
  0
LINE
  5
164B
  8
0
  6
CONTINUOUS
 62
     3
 10
-130.0
 20
-1052.5
 30
0.0
 11
-80.0
 21
-1052.5
 31
0.0
  0
LINE
  5
164C
  8
0
  6
CONTINUOUS
 62
     3
 10
-211.784444
 20
-45.0
 30
0.0
 11
-377.0
 21
-500.0
 31
0.0
  0
LINE
  5
164D
  8
0
  6
CONTINUOUS
 62
     3
 10
-257.184047
 20
-45.0
 30
0.0
 11
-399.7
 21
-437.4
 31
0.0
  0
LINE
  5
164E
  8
0
  6
CONTINUOUS
 62
     3
 10
-80.0
 20
-52.5
 30
0.0
 11
-8.6
 21
-62.4
 31
0.0
  0
LINE
  5
164F
  8
0
  6
CONTINUOUS
 62
     3
 10
-130.0
 20
-52.5
 30
0.0
 11
-80.0
 21
-52.5
 31
0.0
  0
LINE
  5
1650
  8
0
  6
CONTINUOUS
 62
     3
 10
-130.0
 20
50.0
 30
0.0
 11
-386.0
 21
50.0
 31
0.0
  0
LINE
  5
1651
  8
0
  6
CONTINUOUS
 62
     3
 10
-386.0
 20
45.0
 30
0.0
 11
-386.0
 21
50.0
 31
0.0
  0
LINE
  5
1652
  8
0
  6
CONTINUOUS
 62
     3
 10
-80.0
 20
52.5
 30
0.0
 11
-8.6
 21
62.4
 31
0.0
  0
LINE
  5
1653
  8
0
  6
CONTINUOUS
 62
     3
 10
-130.0
 20
52.5
 30
0.0
 11
-80.0
 21
52.5
 31
0.0
  0
ENDBLK
  5
1654
  8
0
  0
BLOCK
  8
0
  2
B110124
 70
     0
 10
0.0
 20
0.0
 30
0.0
  3
B110124
  1

  0
POINT
  5
1714
  8
ô_
 62
     1
 10
0.0
 20
0.0
 30
0.0
  0
LINE
  5
1715
  8
0
  6
CONTINUOUS
 62
     3
 10
4916.53
 20
351.5
 30
0.0
 11
4967.98
 21
232.1
 31
0.0
  0
LINE
  5
1716
  8
0
  6
CONTINUOUS
 62
     3
 10
4870.84
 20
331.2
 30
0.0
 11
4922.06
 21
212.3
 31
0.0
  0
LINE
  5
1717
  8
0
  6
CONTINUOUS
 62
     3
 10
5158.22
 20
308.6
 30
0.0
 11
5102.82
 21
437.2
 31
0.0
  0
LINE
  5
1718
  8
0
  6
CONTINUOUS
 62
     3
 10
5258.65
 20
400.3
 30
0.0
 11
5185.77
 21
320.5
 31
0.0
  0
LINE
  5
1719
  8
0
  6
CONTINUOUS
 62
     3
 10
2871.53
 20
-255.6
 30
0.0
 11
2976.8
 21
-454.4
 31
0.0
  0
LINE
  5
171A
  8
0
  6
CONTINUOUS
 62
     3
 10
3120.29
 20
-274.7
 30
0.0
 11
2871.54
 21
-744.4
 31
0.0
  0
LINE
  5
171B
  8
0
  6
CONTINUOUS
 62
     3
 10
3073.86
 20
-271.2
 30
0.0
 11
2821.18
 21
-748.3
 31
0.0
  0
LINE
  5
171C
  8
0
  6
CONTINUOUS
 62
     3
 10
5339.98
 20
-554.9
 30
0.0
 11
129.99
 21
-954.9
 31
0.0
  0
LINE
  5
171D
  8
0
  6
CONTINUOUS
 62
     3
 10
5339.98
 20
-645.1
 30
0.0
 11
385.31
 21
-1025.5
 31
0.0
  0
LINE
  5
171E
  8
0
  6
CONTINUOUS
 62
     3
 10
130.03
 20
-45.1
 30
0.0
 11
5339.98
 21
-445.1
 31
0.0
  0
LINE
  5
171F
  8
0
  6
CONTINUOUS
 62
     3
 10
385.31
 20
25.5
 30
0.0
 11
5339.98
 21
-354.9
 31
0.0
  0
POINT
  5
1720
  8
ô_
 62
     1
 10
0.0
 20
-1000.0
 30
0.0
  0
ARC
  5
1721
  8
0
  6
CONTINUOUS
 62
     3
 10
-0.03
 20
0.0
 30
0.0
 40
62.9999
 50
82.098
 51
277.902
  0
CIRCLE
  5
1722
  8
0
  6
CONTINUOUS
 62
     3
 10
0.0
 20
0.0
 30
0.0
 40
30.0
  0
CIRCLE
  5
1723
  8
0
  6
CONTINUOUS
 62
     3
 10
0.0
 20
-1000.0
 30
0.0
 40
30.0
  0
ARC
  5
1724
  8
0
  6
CONTINUOUS
 62
     3
 10
-0.03
 20
-1000.0
 30
0.0
 40
62.9999
 50
82.098
 51
277.902
  0
LINE
  5
1725
  8
0
  6
CONTINUOUS
 62
     3
 10
1377.17
 20
-500.0
 30
0.0
 11
1500.06
 21
-150.3
 31
0.0
  0
LINE
  5
1726
  8
0
  6
CONTINUOUS
 62
     3
 10
1247.47
 20
-130.9
 30
0.0
 11
1500.07
 21
-849.7
 31
0.0
  0
LINE
  5
1727
  8
0
  6
CONTINUOUS
 62
     3
 10
143.65
 20
-46.145691
 30
0.0
 11
143.65
 21
-953.851246
 31
0.0
  0
LINE
  5
1728
  8
0
  6
CONTINUOUS
 62
     3
 10
186.35
 20
-49.424034
 30
0.0
 11
186.35
 21
-950.572928
 31
0.0
  0
LINE
  5
1729
  8
0
  6
CONTINUOUS
 62
     3
 10
527.93
 20
-75.7
 30
0.0
 11
257.098522
 21
-945.14117
 31
0.0
  0
LINE
  5
172A
  8
0
  6
CONTINUOUS
 62
     3
 10
484.25
 20
-72.3
 30
0.0
 11
211.27288
 21
-948.65946
 31
0.0
  0
LINE
  5
172B
  8
0
  6
CONTINUOUS
 62
     3
 10
1052.74
 20
-500.0
 30
0.0
 11
1176.04
 21
-874.5
 31
0.0
  0
LINE
  5
172C
  8
0
  6
CONTINUOUS
 62
     3
 10
1030.26
 20
-568.3
 30
0.0
 11
1132.19
 21
-877.9
 31
0.0
  0
LINE
  5
172D
  8
0
  6
CONTINUOUS
 62
     3
 10
552.85
 20
-922.4
 30
0.0
 11
683.61
 21
-500.0
 31
0.0
  0
LINE
  5
172E
  8
0
  6
CONTINUOUS
 62
     3
 10
1200.96
 20
-127.4
 30
0.0
 11
1456.0
 21
-853.1
 31
0.0
  0
LINE
  5
172F
  8
0
  6
CONTINUOUS
 62
     3
 10
1247.46
 20
-869.1
 30
0.0
 11
1354.54
 21
-564.4
 31
0.0
  0
LINE
  5
1730
  8
0
  6
CONTINUOUS
 62
     3
 10
1200.95
 20
-872.7
 30
0.0
 11
1331.91
 21
-500.0
 31
0.0
  0
LINE
  5
1731
  8
0
  6
CONTINUOUS
 62
     3
 10
923.02
 20
-894.0
 30
0.0
 11
1176.02
 21
-125.4
 31
0.0
  0
LINE
  5
1732
  8
0
  6
CONTINUOUS
 62
     3
 10
876.9
 20
-897.5
 30
0.0
 11
1132.17
 21
-122.1
 31
0.0
  0
LINE
  5
1733
  8
0
  6
CONTINUOUS
 62
     3
 10
598.67
 20
-81.1
 30
0.0
 11
851.99
 21
-899.4
 31
0.0
  0
LINE
  5
1734
  8
0
  6
CONTINUOUS
 62
     3
 10
552.88
 20
-77.6
 30
0.0
 11
808.33
 21
-902.8
 31
0.0
  0
LINE
  5
1735
  8
0
  6
CONTINUOUS
 62
     3
 10
598.64
 20
-918.9
 30
0.0
 11
705.96
 21
-572.2
 31
0.0
  0
LINE
  5
1736
  8
0
  6
CONTINUOUS
 62
     3
 10
527.93
 20
-924.3
 30
0.0
 11
395.76
 21
-500.0
 31
0.0
  0
LINE
  5
1737
  8
0
  6
CONTINUOUS
 62
     3
 10
484.26
 20
-927.7
 30
0.0
 11
373.4
 21
-571.8
 31
0.0
  0
LINE
  5
1738
  8
0
  6
CONTINUOUS
 62
     3
 10
385.69
 20
-1030.5
 30
0.0
 11
129.99
 21
-1050.162141
 31
0.0
  0
LINE
  5
1739
  8
0
  6
CONTINUOUS
 62
     3
 10
79.98
 20
-947.5
 30
0.0
 11
8.64
 21
-937.6
 31
0.0
  0
LINE
  5
173A
  8
0
  6
CONTINUOUS
 62
     3
 10
79.99
 20
-947.5
 30
0.0
 11
129.99
 21
-947.5
 31
0.0
  0
LINE
  5
173B
  8
0
  6
CONTINUOUS
 62
     3
 10
79.99
 20
-1052.5
 30
0.0
 11
8.65
 21
-1062.4
 31
0.0
  0
LINE
  5
173C
  8
0
  6
CONTINUOUS
 62
     3
 10
79.99
 20
-1052.5
 30
0.0
 11
129.99
 21
-1052.5
 31
0.0
  0
LINE
  5
173D
  8
0
  6
CONTINUOUS
 62
     3
 10
129.99
 20
-947.5
 30
0.0
 11
129.99
 21
-1052.5
 31
0.0
  0
LINE
  5
173E
  8
0
  6
CONTINUOUS
 62
     3
 10
79.99
 20
-947.5
 30
0.0
 11
79.99
 21
-1052.5
 31
0.0
  0
LINE
  5
173F
  8
0
  6
CONTINUOUS
 62
     3
 10
385.29
 20
-1025.3
 30
0.0
 11
385.69
 21
-1030.5
 31
0.0
  0
LINE
  5
1740
  8
0
  6
CONTINUOUS
 62
     3
 10
552.85
 20
-922.4
 30
0.0
 11
552.85
 21
-922.4
 31
0.0
  0
LINE
  5
1741
  8
0
  6
CONTINUOUS
 62
     3
 10
705.96
 20
-427.8
 30
0.0
 11
808.3
 21
-97.2
 31
0.0
  0
LINE
  5
1742
  8
0
  6
CONTINUOUS
 62
     3
 10
373.4
 20
-428.2
 30
0.0
 11
257.107876
 21
-54.856552
 31
0.0
  0
LINE
  5
1743
  8
0
  6
CONTINUOUS
 62
     3
 10
351.03
 20
-500.0
 30
0.0
 11
211.282229
 21
-51.338235
 31
0.0
  0
LINE
  5
1744
  8
0
  6
CONTINUOUS
 62
     3
 10
129.99
 20
50.19527
 30
0.0
 11
385.69
 21
30.5
 31
0.0
  0
ARC
  5
1745
  8
0
  6
CONTINUOUS
 62
     3
 10
145.04
 20
107.5
 30
0.0
 40
29.9999
 50
18.896
 51
90.0382
  0
ARC
  5
1746
  8
0
  6
CONTINUOUS
 62
     3
 10
145.0
 20
107.5
 30
0.0
 40
29.9999
 50
89.9618
 51
161.104
  0
CIRCLE
  5
1747
  8
0
  6
CONTINUOUS
 62
     3
 10
145.02
 20
107.5
 30
0.0
 40
17.5
  0
LINE
  5
1748
  8
0
  6
CONTINUOUS
 62
     3
 10
173.42
 20
117.2
 30
0.0
 11
195.03
 21
45.2
 31
0.0
  0
LINE
  5
1749
  8
0
  6
CONTINUOUS
 62
     3
 10
79.98
 20
52.5
 30
0.0
 11
8.64
 21
62.4
 31
0.0
  0
LINE
  5
174A
  8
0
  6
CONTINUOUS
 62
     3
 10
79.99
 20
-52.5
 30
0.0
 11
8.65
 21
-62.4
 31
0.0
  0
LINE
  5
174B
  8
0
  6
CONTINUOUS
 62
     3
 10
116.57
 20
117.0
 30
0.0
 11
95.02
 21
52.5
 31
0.0
  0
LINE
  5
174C
  8
0
  6
CONTINUOUS
 62
     3
 10
79.99
 20
52.5
 30
0.0
 11
129.99
 21
52.5
 31
0.0
  0
LINE
  5
174D
  8
0
  6
CONTINUOUS
 62
     3
 10
79.99
 20
-52.5
 30
0.0
 11
129.99
 21
-52.5
 31
0.0
  0
LINE
  5
174E
  8
0
  6
CONTINUOUS
 62
     3
 10
79.99
 20
52.5
 30
0.0
 11
79.99
 21
-52.5
 31
0.0
  0
LINE
  5
174F
  8
0
  6
CONTINUOUS
 62
     3
 10
129.99
 20
52.5
 30
0.0
 11
129.99
 21
-52.5
 31
0.0
  0
LINE
  5
1750
  8
0
  6
CONTINUOUS
 62
     3
 10
1354.54
 20
-435.6
 30
0.0
 11
1455.99
 21
-146.9
 31
0.0
  0
LINE
  5
1751
  8
0
  6
CONTINUOUS
 62
     3
 10
728.31
 20
-500.0
 30
0.0
 11
851.96
 21
-100.6
 31
0.0
  0
LINE
  5
1752
  8
0
  6
CONTINUOUS
 62
     3
 10
923.04
 20
-106.0
 30
0.0
 11
1030.26
 21
-431.7
 31
0.0
  0
LINE
  5
1753
  8
0
  6
CONTINUOUS
 62
     3
 10
876.92
 20
-102.5
 30
0.0
 11
1007.78
 21
-500.0
 31
0.0
  0
LINE
  5
1754
  8
0
  6
CONTINUOUS
 62
     3
 10
2351.03
 20
-500.0
 30
0.0
 11
2472.2
 21
-775.0
 31
0.0
  0
LINE
  5
1755
  8
0
  6
CONTINUOUS
 62
     3
 10
2327.7
 20
-553.0
 30
0.0
 11
2427.06
 21
-778.5
 31
0.0
  0
LINE
  5
1756
  8
0
  6
CONTINUOUS
 62
     3
 10
1701.69
 20
-500.0
 30
0.0
 11
1824.11
 21
-824.8
 31
0.0
  0
LINE
  5
1757
  8
0
  6
CONTINUOUS
 62
     3
 10
1678.88
 20
-560.5
 30
0.0
 11
1779.76
 21
-828.2
 31
0.0
  0
LINE
  5
1758
  8
0
  6
CONTINUOUS
 62
     3
 10
2546.32
 20
-769.4
 30
0.0
 11
2652.2
 21
-549.3
 31
0.0
  0
LINE
  5
1759
  8
0
  6
CONTINUOUS
 62
     3
 10
2497.12
 20
-773.1
 30
0.0
 11
2628.52
 21
-500.0
 31
0.0
  0
LINE
  5
175A
  8
0
  6
CONTINUOUS
 62
     3
 10
2472.17
 20
-225.0
 30
0.0
 11
2221.36
 21
-794.3
 31
0.0
  0
LINE
  5
175B
  8
0
  6
CONTINUOUS
 62
     3
 10
2427.04
 20
-221.5
 30
0.0
 11
2173.07
 21
-798.0
 31
0.0
  0
LINE
  5
175C
  8
0
  6
CONTINUOUS
 62
     3
 10
2148.14
 20
-799.9
 30
0.0
 11
1896.6
 21
-180.8
 31
0.0
  0
LINE
  5
175D
  8
0
  6
CONTINUOUS
 62
     3
 10
2103.45
 20
-803.3
 30
0.0
 11
1849.03
 21
-177.1
 31
0.0
  0
LINE
  5
175E
  8
0
  6
CONTINUOUS
 62
     3
 10
1896.61
 20
-819.2
 30
0.0
 11
2003.26
 21
-556.7
 31
0.0
  0
LINE
  5
175F
  8
0
  6
CONTINUOUS
 62
     3
 10
1849.04
 20
-822.9
 30
0.0
 11
1980.22
 21
-500.0
 31
0.0
  0
LINE
  5
1760
  8
0
  6
CONTINUOUS
 62
     3
 10
1824.11
 20
-175.2
 30
0.0
 11
1571.98
 21
-844.2
 31
0.0
  0
LINE
  5
1761
  8
0
  6
CONTINUOUS
 62
     3
 10
1779.76
 20
-171.8
 30
0.0
 11
1524.99
 21
-847.8
 31
0.0
  0
LINE
  5
1762
  8
0
  6
CONTINUOUS
 62
     3
 10
2173.09
 20
-202.0
 30
0.0
 11
2304.37
 21
-500.0
 31
0.0
  0
LINE
  5
1763
  8
0
  6
CONTINUOUS
 62
     3
 10
2026.31
 20
-500.0
 30
0.0
 11
2148.15
 21
-200.1
 31
0.0
  0
LINE
  5
1764
  8
0
  6
CONTINUOUS
 62
     3
 10
2003.27
 20
-443.3
 30
0.0
 11
2103.47
 21
-196.7
 31
0.0
  0
LINE
  5
1765
  8
0
  6
CONTINUOUS
 62
     3
 10
1571.98
 20
-155.8
 30
0.0
 11
1678.88
 21
-439.5
 31
0.0
  0
LINE
  5
1766
  8
0
  6
CONTINUOUS
 62
     3
 10
1524.99
 20
-152.2
 30
0.0
 11
1656.06
 21
-500.0
 31
0.0
  0
LINE
  5
1767
  8
0
  6
CONTINUOUS
 62
     3
 10
2221.38
 20
-205.7
 30
0.0
 11
2327.7
 21
-447.0
 31
0.0
  0
LINE
  5
1768
  8
0
  6
CONTINUOUS
 62
     3
 10
2796.24
 20
-750.2
 30
0.0
 11
2546.31
 21
-230.6
 31
0.0
  0
LINE
  5
1769
  8
0
  6
CONTINUOUS
 62
     3
 10
2750.54
 20
-753.7
 30
0.0
 11
2497.11
 21
-226.9
 31
0.0
  0
LINE
  5
176A
  8
0
  6
CONTINUOUS
 62
     3
 10
2652.21
 20
-450.8
 30
0.0
 11
2750.55
 21
-246.3
 31
0.0
  0
LINE
  5
176B
  8
0
  6
CONTINUOUS
 62
     3
 10
2675.89
 20
-500.0
 30
0.0
 11
2796.24
 21
-249.8
 31
0.0
  0
LINE
  5
176C
  8
0
  6
CONTINUOUS
 62
     3
 10
2821.16
 20
-251.8
 30
0.0
 11
2952.64
 21
-500.0
 31
0.0
  0
POINT
  5
176D
  8
ô_
 62
     1
 10
5499.97
 20
-500.0
 30
0.0
  0
LINE
  5
176E
  8
0
  6
CONTINUOUS
 62
     3
 10
3887.99
 20
-113.5
 30
0.0
 11
4786.69
 21
273.7
 31
0.0
  0
LINE
  5
176F
  8
0
  6
CONTINUOUS
 62
     3
 10
3947.3
 20
-186.0
 30
0.0
 11
4822.31
 21
191.1
 31
0.0
  0
LINE
  5
1770
  8
0
  6
CONTINUOUS
 62
     3
 10
3297.99
 20
-500.0
 30
0.0
 11
3394.49
 21
-295.8
 31
0.0
  0
LINE
  5
1771
  8
0
  6
CONTINUOUS
 62
     3
 10
3274.38
 20
-450.0
 30
0.0
 11
3348.92
 21
-292.3
 31
0.0
  0
LINE
  5
1772
  8
0
  6
CONTINUOUS
 62
     3
 10
3394.47
 20
-704.2
 30
0.0
 11
3194.21
 21
-280.4
 31
0.0
  0
LINE
  5
1773
  8
0
  6
CONTINUOUS
 62
     3
 10
3348.89
 20
-707.7
 30
0.0
 11
3145.21
 21
-276.6
 31
0.0
  0
LINE
  5
1774
  8
0
  6
CONTINUOUS
 62
     3
 10
3000.96
 20
-500.0
 30
0.0
 11
3120.28
 21
-725.3
 31
0.0
  0
LINE
  5
1775
  8
0
  6
CONTINUOUS
 62
     3
 10
2976.8
 20
-545.6
 30
0.0
 11
3073.85
 21
-728.9
 31
0.0
  0
LINE
  5
1776
  8
0
  6
CONTINUOUS
 62
     3
 10
3194.23
 20
-719.6
 30
0.0
 11
3274.38
 21
-550.0
 31
0.0
  0
LINE
  5
1777
  8
0
  6
CONTINUOUS
 62
     3
 10
3145.23
 20
-723.4
 30
0.0
 11
3250.76
 21
-500.0
 31
0.0
  0
ARC
  5
1778
  8
0
  6
CONTINUOUS
 62
     3
 10
3574.99
 20
-500.0
 30
0.0
 40
99.9999
 50
306.398
 51
53.6022
  0
LINE
  5
1779
  8
0
  6
CONTINUOUS
 62
     3
 10
3575.95
 20
-500.0
 30
0.0
 11
3623.32
 21
-588.6
 31
0.0
  0
LINE
  5
177A
  8
0
  6
CONTINUOUS
 62
     3
 10
3551.74
 20
-545.3
 30
0.0
 11
3588.58
 21
-614.2
 31
0.0
  0
LINE
  5
177B
  8
0
  6
CONTINUOUS
 62
     3
 10
3588.6
 20
-385.8
 30
0.0
 11
3419.41
 21
-702.3
 31
0.0
  0
LINE
  5
177C
  8
0
  6
CONTINUOUS
 62
     3
 10
3623.33
 20
-411.4
 30
0.0
 11
3469.9
 21
-698.4
 31
0.0
  0
LINE
  5
177D
  8
0
  6
CONTINUOUS
 62
     3
 10
3469.88
 20
-301.6
 30
0.0
 11
3551.74
 21
-454.7
 31
0.0
  0
LINE
  5
177E
  8
0
  6
CONTINUOUS
 62
     3
 10
3419.4
 20
-297.7
 30
0.0
 11
3527.54
 21
-500.0
 31
0.0
  0
LINE
  5
177F
  8
0
  6
CONTINUOUS
 62
     3
 10
3489.99
 20
-303.1
 30
0.0
 11
3489.99
 21
-313.1
 31
0.0
  0
LINE
  5
1780
  8
0
  6
CONTINUOUS
 62
     3
 10
3489.99
 20
-686.9
 30
0.0
 11
3489.99
 21
-696.9
 31
0.0
  0
LINE
  5
1781
  8
0
  6
CONTINUOUS
 62
     3
 10
3634.35
 20
-580.5
 30
0.0
 11
3490.0
 21
-686.9
 31
0.0
  0
LINE
  5
1782
  8
0
  6
CONTINUOUS
 62
     3
 10
3634.35
 20
-419.5
 30
0.0
 11
3490.01
 21
-313.1
 31
0.0
  0
LINE
  5
1783
  8
0
  6
CONTINUOUS
 62
     3
 10
3949.38
 20
-158.9
 30
0.0
 11
3942.57
 21
-247.6
 31
0.0
  0
LINE
  5
1784
  8
0
  6
CONTINUOUS
 62
     3
 10
3725.44
 20
-201.8
 30
0.0
 11
3723.24
 21
-230.7
 31
0.0
  0
CIRCLE
  5
1785
  8
0
  6
CONTINUOUS
 62
     3
 10
4090.0
 20
-500.0
 30
0.0
 40
64.9999
  0
ARC
  5
1786
  8
0
  6
CONTINUOUS
 62
     3
 10
3904.5
 20
-155.4
 30
0.0
 40
45.0
 50
355.60998
 51
118.351
  0
CIRCLE
  5
1787
  8
0
  6
CONTINUOUS
 62
     3
 10
3904.5
 20
-155.4
 30
0.0
 40
27.5
  0
LINE
  5
1788
  8
0
  6
CONTINUOUS
 62
     3
 10
3882.96
 20
-115.9
 30
0.0
 11
3725.45
 21
-201.8
 31
0.0
  0
LINE
  5
1789
  8
0
  6
CONTINUOUS
 62
     3
 10
5185.77
 20
320.5
 30
0.0
 11
5158.22
 21
308.6
 31
0.0
  0
LINE
  5
178A
  8
0
  6
CONTINUOUS
 62
     3
 10
4866.88
 20
141.5
 30
0.0
 11
5018.12
 21
-281.4
 31
0.0
  0
LINE
  5
178B
  8
0
  6
CONTINUOUS
 62
     3
 10
4923.38
 20
161.7
 30
0.0
 11
5077.8
 21
-270.8
 31
0.0
  0
ARC
  5
178C
  8
0
  6
CONTINUOUS
 62
     3
 10
5048.51
 20
-277.3
 30
0.0
 40
29.9999
 50
12.4848
 51
175.2
  0
ARC
  5
178D
  8
0
  6
CONTINUOUS
 62
     3
 10
5062.97
 20
-500.0
 30
0.0
 40
39.9999
 50
306.906
 51
53.4719
  0
LINE
  5
178E
  8
0
  6
CONTINUOUS
 62
     3
 10
5099.91
 20
-326.4
 30
0.0
 11
5099.14
 21
-336.4
 31
0.0
  0
LINE
  5
178F
  8
0
  6
CONTINUOUS
 62
     3
 10
5077.8
 20
-270.8
 30
0.0
 11
5089.94
 21
-325.6
 31
0.0
  0
LINE
  5
1790
  8
0
  6
CONTINUOUS
 62
     3
 10
5018.62
 20
-274.8
 30
0.0
 11
5015.16
 21
-319.9
 31
0.0
  0
LINE
  5
1791
  8
0
  6
CONTINUOUS
 62
     3
 10
5000.21
 20
-318.8
 30
0.0
 11
4999.44
 21
-328.7
 31
0.0
  0
LINE
  5
1792
  8
0
  6
CONTINUOUS
 62
     3
 10
5086.79
 20
-532.1
 30
0.0
 11
5023.29
 21
-579.2
 31
0.0
  0
LINE
  5
1793
  8
0
  6
CONTINUOUS
 62
     3
 10
5086.79
 20
-467.9
 30
0.0
 11
5023.29
 21
-420.8
 31
0.0
  0
LINE
  5
1794
  8
0
  6
CONTINUOUS
 62
     3
 10
5000.21
 20
-318.8
 30
0.0
 11
5099.91
 21
-326.4
 31
0.0
  0
LINE
  5
1795
  8
0
  6
CONTINUOUS
 62
     3
 10
4780.76
 20
287.5
 30
0.0
 11
4872.59
 21
327.1
 31
0.0
  0
LINE
  5
1796
  8
0
  6
CONTINUOUS
 62
     3
 10
4780.76
 20
287.5
 30
0.0
 11
4828.24
 21
177.3
 31
0.0
  0
ARC
  5
1797
  8
0
  6
CONTINUOUS
 62
     3
 10
4895.13
 20
151.6
 30
0.0
 40
29.9999
 50
19.6747
 51
199.674
  0
LINE
  5
1798
  8
0
  6
CONTINUOUS
 62
     3
 10
4901.71
 20
209.0
 30
0.0
 11
4918.1
 21
170.9
 31
0.0
  0
LINE
  5
1799
  8
0
  6
CONTINUOUS
 62
     3
 10
4922.06
 20
212.3
 30
0.0
 11
4967.98
 21
232.1
 31
0.0
  0
LINE
  5
179A
  8
0
  6
CONTINUOUS
 62
     3
 10
4846.61
 20
185.2
 30
0.0
 11
4874.31
 21
120.9
 31
0.0
  0
LINE
  5
179B
  8
0
  6
CONTINUOUS
 62
     3
 10
4828.24
 20
177.3
 30
0.0
 11
4920.08
 21
216.9
 31
0.0
  0
LINE
  5
179C
  8
0
  6
CONTINUOUS
 62
     3
 10
4962.04
 20
245.9
 30
0.0
 11
5150.31
 21
327.0
 31
0.0
  0
ARC
  5
179D
  8
0
  6
CONTINUOUS
 62
     3
 10
5499.97
 20
-500.0
 30
0.0
 40
80.0
 50
89.6298
 51
270.0
  0
ARC
  5
179E
  8
0
  6
CONTINUOUS
 62
     3
 10
5499.97
 20
-500.0
 30
0.0
 40
79.9999
 50
308.682
 51
51.3178
  0
LINE
  5
179F
  8
0
  6
CONTINUOUS
 62
     3
 10
5549.97
 20
-575.0
 30
0.0
 11
5554.97
 21
-580.0
 31
0.0
  0
LINE
  5
17A0
  8
0
  6
CONTINUOUS
 62
     3
 10
5549.97
 20
-425.0
 30
0.0
 11
5554.97
 21
-420.0
 31
0.0
  0
LINE
  5
17A1
  8
0
  6
CONTINUOUS
 62
     3
 10
5499.97
 20
-580.0
 30
0.0
 11
5674.97
 21
-580.0
 31
0.0
  0
LINE
  5
17A2
  8
0
  6
CONTINUOUS
 62
     3
 10
5499.97
 20
-630.0
 30
0.0
 11
5679.97
 21
-630.0
 31
0.0
  0
LINE
  5
17A3
  8
0
  6
CONTINUOUS
 62
     3
 10
5499.97
 20
-420.0
 30
0.0
 11
5674.97
 21
-420.0
 31
0.0
  0
LINE
  5
17A4
  8
0
  6
CONTINUOUS
 62
     3
 10
5499.97
 20
-370.0
 30
0.0
 11
5679.97
 21
-370.0
 31
0.0
  0
LINE
  5
17A5
  8
0
  6
CONTINUOUS
 62
     3
 10
5339.98
 20
-340.0
 30
0.0
 11
5359.98
 21
-340.0
 31
0.0
  0
LINE
  5
17A6
  8
0
  6
CONTINUOUS
 62
     3
 10
5499.98
 20
-630.0
 30
0.0
 11
5359.98
 21
-660.0
 31
0.0
  0
LINE
  5
17A7
  8
0
  6
CONTINUOUS
 62
     3
 10
5549.97
 20
-562.4
 30
0.0
 11
5549.97
 21
-575.0
 31
0.0
  0
LINE
  5
17A8
  8
0
  6
CONTINUOUS
 62
     3
 10
5549.97
 20
-425.0
 30
0.0
 11
5549.97
 21
-437.5
 31
0.0
  0
LINE
  5
17A9
  8
0
  6
CONTINUOUS
 62
     3
 10
5359.98
 20
-660.0
 30
0.0
 11
5339.98
 21
-660.0
 31
0.0
  0
LINE
  5
17AA
  8
0
  6
CONTINUOUS
 62
     3
 10
5359.97
 20
-340.0
 30
0.0
 11
5499.97
 21
-370.0
 31
0.0
  0
LINE
  5
17AB
  8
0
  6
CONTINUOUS
 62
     3
 10
5339.98
 20
-340.0
 30
0.0
 11
5339.98
 21
-660.0
 31
0.0
  0
ARC
  5
17AC
  8
0
  6
CONTINUOUS
 62
     3
 10
5694.97
 20
-527.5
 30
0.0
 40
30.0
 50
270.0
 51
0.0
  0
ARC
  5
17AD
  8
0
  6
CONTINUOUS
 62
     3
 10
5694.97
 20
-527.5
 30
0.0
 40
43.0
 50
270.0
 51
0.0
  0
ARC
  5
17AE
  8
0
  6
CONTINUOUS
 62
     3
 10
5694.97
 20
-472.5
 30
0.0
 40
30.0
 50
0.0
 51
90.0
  0
ARC
  5
17AF
  8
0
  6
CONTINUOUS
 62
     3
 10
5694.97
 20
-472.5
 30
0.0
 40
43.0
 50
0.0
 51
90.0
  0
LINE
  5
17B0
  8
0
  6
CONTINUOUS
 62
     3
 10
5592.47
 20
-326.0
 30
0.0
 11
5593.47
 21
-325.0
 31
0.0
  0
LINE
  5
17B1
  8
0
  6
CONTINUOUS
 62
     3
 10
5656.47
 20
-325.0
 30
0.0
 11
5657.47
 21
-326.0
 31
0.0
  0
LINE
  5
17B2
  8
0
  6
CONTINUOUS
 62
     3
 10
5597.97
 20
-310.0
 30
0.0
 11
5651.97
 21
-310.0
 31
0.0
  0
LINE
  5
17B3
  8
0
  6
CONTINUOUS
 62
     3
 10
5593.47
 20
-325.0
 30
0.0
 11
5656.47
 21
-325.0
 31
0.0
  0
LINE
  5
17B4
  8
0
  6
CONTINUOUS
 62
     3
 10
5654.97
 20
-313.0
 30
0.0
 11
5654.97
 21
-325.0
 31
0.0
  0
LINE
  5
17B5
  8
0
  6
CONTINUOUS
 62
     3
 10
5594.97
 20
-313.0
 30
0.0
 11
5594.97
 21
-325.0
 31
0.0
  0
LINE
  5
17B6
  8
0
  6
CONTINUOUS
 62
     3
 10
5654.97
 20
-313.0
 30
0.0
 11
5651.97
 21
-310.0
 31
0.0
  0
LINE
  5
17B7
  8
0
  6
CONTINUOUS
 62
     3
 10
5594.97
 20
-313.0
 30
0.0
 11
5597.97
 21
-310.0
 31
0.0
  0
LINE
  5
17B8
  8
0
  6
CONTINUOUS
 62
     3
 10
5674.97
 20
-420.0
 30
0.0
 11
5674.97
 21
-580.0
 31
0.0
  0
LINE
  5
17B9
  8
0
  6
CONTINUOUS
 62
     3
 10
5724.97
 20
-472.5
 30
0.0
 11
5724.97
 21
-527.5
 31
0.0
  0
LINE
  5
17BA
  8
0
  6
CONTINUOUS
 62
     3
 10
5737.97
 20
-472.5
 30
0.0
 11
5737.97
 21
-527.5
 31
0.0
  0
LINE
  5
17BB
  8
0
  6
CONTINUOUS
 62
     3
 10
5694.97
 20
-557.5
 30
0.0
 11
5674.97
 21
-557.5
 31
0.0
  0
LINE
  5
17BC
  8
0
  6
CONTINUOUS
 62
     3
 10
5694.97
 20
-570.5
 30
0.0
 11
5674.97
 21
-570.5
 31
0.0
  0
LINE
  5
17BD
  8
0
  6
CONTINUOUS
 62
     3
 10
5679.97
 20
-585.0
 30
0.0
 11
5679.97
 21
-630.0
 31
0.0
  0
LINE
  5
17BE
  8
0
  6
CONTINUOUS
 62
     3
 10
5602.97
 20
-650.0
 30
0.0
 11
5646.97
 21
-650.0
 31
0.0
  0
LINE
  5
17BF
  8
0
  6
CONTINUOUS
 62
     3
 10
5599.97
 20
-630.0
 30
0.0
 11
5599.97
 21
-638.8
 31
0.0
  0
LINE
  5
17C0
  8
0
  6
CONTINUOUS
 62
     3
 10
5649.97
 20
-630.0
 30
0.0
 11
5649.97
 21
-638.8
 31
0.0
  0
LINE
  5
17C1
  8
0
  6
CONTINUOUS
 62
     3
 10
5646.97
 20
-650.0
 30
0.0
 11
5649.97
 21
-638.8
 31
0.0
  0
LINE
  5
17C2
  8
0
  6
CONTINUOUS
 62
     3
 10
5602.97
 20
-650.0
 30
0.0
 11
5599.97
 21
-638.8
 31
0.0
  0
LINE
  5
17C3
  8
0
  6
CONTINUOUS
 62
     3
 10
5669.98
 20
-580.0
 30
0.0
 11
5679.99
 21
-585.0
 31
0.0
  0
LINE
  5
17C4
  8
0
  6
CONTINUOUS
 62
     3
 10
5694.97
 20
-442.5
 30
0.0
 11
5674.97
 21
-442.5
 31
0.0
  0
LINE
  5
17C5
  8
0
  6
CONTINUOUS
 62
     3
 10
5694.97
 20
-429.5
 30
0.0
 11
5674.97
 21
-429.5
 31
0.0
  0
LINE
  5
17C6
  8
0
  6
CONTINUOUS
 62
     3
 10
5679.97
 20
-370.0
 30
0.0
 11
5679.97
 21
-415.0
 31
0.0
  0
LINE
  5
17C7
  8
0
  6
CONTINUOUS
 62
     3
 10
5679.99
 20
-415.0
 30
0.0
 11
5669.98
 21
-420.0
 31
0.0
  0
LINE
  5
17C8
  8
0
  6
CONTINUOUS
 62
     3
 10
5592.47
 20
-326.0
 30
0.0
 11
5592.47
 21
-370.0
 31
0.0
  0
LINE
  5
17C9
  8
0
  6
CONTINUOUS
 62
     3
 10
5657.47
 20
-326.0
 30
0.0
 11
5657.47
 21
-370.0
 31
0.0
  0
LINE
  5
17CA
  8
0
  6
CONTINUOUS
 62
     3
 10
5238.45
 20
447.2
 30
0.0
 11
5130.37
 21
449.1
 31
0.0
  0
LINE
  5
17CB
  8
0
  6
CONTINUOUS
 62
     3
 10
5102.82
 20
437.2
 30
0.0
 11
5130.37
 21
449.1
 31
0.0
  0
LINE
  5
17CC
  8
0
  6
CONTINUOUS
 62
     3
 10
4916.53
 20
351.5
 30
0.0
 11
4870.62
 21
331.7
 31
0.0
  0
LINE
  5
17CD
  8
0
  6
CONTINUOUS
 62
     3
 10
4922.47
 20
337.7
 30
0.0
 11
5110.73
 21
418.8
 31
0.0
  0
ARC
  5
17CE
  8
0
  6
CONTINUOUS
 62
     3
 10
5237.97
 20
419.2
 30
0.0
 40
28.0
 50
317.609
 51
89.0139
  0
ENDBLK
  5
17CF
  8
0
  0
BLOCK
  8
0
  2
B110125
 70
     0
 10
0.0
 20
0.0
 30
0.0
  3
B110125
  1

  0
LINE
  5
1863
  8
0
  6
CONTINUOUS
 62
     3
 10
3241.3
 20
-935.2
 30
0.0
 11
3611.5
 21
-982.4
 31
0.0
  0
LINE
  5
1864
  8
0
  6
CONTINUOUS
 62
     3
 10
2026.735917
 20
-411.893778
 30
0.0
 11
3907.6
 21
-243.5
 31
0.0
  0
LINE
  5
1865
  8
0
  6
CONTINUOUS
 62
     3
 10
2626.011009
 20
-670.1
 30
0.0
 11
3977.9
 21
-670.1
 31
0.0
  0
LINE
  5
1866
  8
0
  6
CONTINUOUS
 62
     3
 10
2393.919355
 20
-570.1
 30
0.0
 11
3977.9
 21
-570.1
 31
0.0
  0
LINE
  5
1867
  8
0
  6
CONTINUOUS
 62
     3
 10
3180.1
 20
-1139.1
 30
0.0
 11
3584.9
 21
-1190.7
 31
0.0
  0
LINE
  5
1868
  8
0
  6
CONTINUOUS
 62
     3
 10
3182.1
 20
-1124.2
 30
0.0
 11
3337.9
 21
-1080.3
 31
0.0
  0
LINE
  5
1869
  8
0
  6
CONTINUOUS
 62
     3
 10
3350.6
 20
-1085.7
 30
0.0
 11
1463.606623
 21
-272.683658
 31
0.0
  0
LINE
  5
186A
  8
0
  6
CONTINUOUS
 62
     3
 10
3388.2
 20
-998.5
 30
0.0
 11
1575.1
 21
-217.3
 31
0.0
  0
LINE
  5
186B
  8
0
  6
CONTINUOUS
 62
     3
 10
1972.1
 20
-239.1
 30
0.0
 11
3891.8
 21
-67.2
 31
0.0
  0
LINE
  5
186C
  8
0
  6
CONTINUOUS
 62
     3
 10
929.2
 20
-868.8
 30
0.0
 11
3582.7
 21
-1207.6
 31
0.0
  0
POINT
  5
186D
  8
ô_
 62
     1
 10
0.0
 20
0.0
 30
0.0
  0
LINE
  5
186E
  8
0
  6
CONTINUOUS
 62
     3
 10
601.6353
 20
322.1454
 30
0.0
 11
460.358112
 21
379.157258
 31
0.0
  0
LINE
  5
186F
  8
0
  6
CONTINUOUS
 62
     3
 10
422.3
 20
284.9
 30
0.0
 11
460.358112
 21
379.157258
 31
0.0
  0
LINE
  5
1870
  8
0
  6
CONTINUOUS
 62
     3
 10
183.0
 20
438.1
 30
0.0
 11
50.6
 21
367.3
 31
0.0
  0
LINE
  5
1871
  8
0
  6
CONTINUOUS
 62
     3
 10
300.2
 20
387.7
 30
0.0
 11
437.7
 21
271.9
 31
0.0
  0
LINE
  5
1872
  8
0
  6
CONTINUOUS
 62
     3
 10
577.4
 20
332.0
 30
0.0
 11
772.3
 21
815.1
 31
0.0
  0
LINE
  5
1873
  8
0
  6
CONTINUOUS
 62
     3
 10
257.0
 20
341.6
 30
0.0
 11
847.6
 21
970.8
 31
0.0
  0
LINE
  5
1874
  8
0
  6
CONTINUOUS
 62
     3
 10
484.6
 20
369.4
 30
0.0
 11
636.6
 21
746.0
 31
0.0
  0
POINT
  5
1875
  8
ô_
 62
     1
 10
300.0
 20
-640.1
 30
0.0
  0
LINE
  5
1876
  8
0
  6
CONTINUOUS
 62
     3
 10
588.0
 20
-375.1
 30
0.0
 11
250.2
 21
-514.7
 31
0.0
  0
LINE
  5
1877
  8
0
  6
CONTINUOUS
 62
     3
 10
584.4
 20
-350.4
 30
0.0
 11
294.5
 21
-97.6
 31
0.0
  0
LINE
  5
1878
  8
0
  6
CONTINUOUS
 62
     3
 10
90.9
 20
-65.2
 30
0.0
 11
859.9
 21
-187.7
 31
0.0
  0
LINE
  5
1879
  8
0
  6
CONTINUOUS
 62
     3
 10
106.6
 20
33.5
 30
0.0
 11
864.3
 21
-87.1
 31
0.0
  0
LINE
  5
187A
  8
0
  6
CONTINUOUS
 62
     3
 10
396.0
 20
191.0
 30
0.0
 11
318.8
 21
-0.3
 31
0.0
  0
LINE
  5
187B
  8
0
  6
CONTINUOUS
 62
     3
 10
275.879562
 20
279.284667
 30
0.0
 11
382.1
 21
201.2
 31
0.0
  0
LINE
  5
187C
  8
0
  6
CONTINUOUS
 62
     3
 10
600.0
 20
-840.1
 30
0.0
 11
300.0
 21
-792.0
 31
0.0
  0
LINE
  5
187D
  8
0
  6
CONTINUOUS
 62
     3
 10
588.0
 20
-825.1
 30
0.0
 11
300.0
 21
-776.9
 31
0.0
  0
ARC
  5
187E
  8
0
  6
CONTINUOUS
 62
     3
 10
300.0
 20
-640.1
 30
0.0
 40
134.738
 50
106.485
 51
270.5413
  0
ARC
  5
187F
  8
0
  6
CONTINUOUS
 62
     3
 10
300.0
 20
-640.1
 30
0.0
 40
149.917
 50
202.362
 51
270.1445
  0
LINE
  5
1880
  8
0
  6
CONTINUOUS
 62
     3
 10
161.3
 20
-699.8
 30
0.0
 11
-101.5
 21
-68.3
 31
0.0
  0
ARC
  5
1881
  8
0
  6
CONTINUOUS
 62
     3
 10
0.0
 20
-0.1
 30
0.0
 40
79.9997
 50
61.828
 51
280.073
  0
ARC
  5
1882
  8
0
  6
CONTINUOUS
 62
     3
 10
0.0
 20
0.0
 30
0.0
 40
120.057
 50
57.6385
 51
213.919
  0
ARC
  5
1883
  8
0
  6
CONTINUOUS
 62
     3
 10
93.1
 20
288.0
 30
0.0
 40
30.0009
 50
208.147
 51
298.148
  0
ARC
  5
1884
  8
0
  6
CONTINUOUS
 62
     3
 10
64.7
 20
340.9
 30
0.0
 40
30.0001
 50
118.148
 51
208.147
  0
ARC
  5
1885
  8
0
  6
CONTINUOUS
 62
     3
 10
0.1
 20
-0.1
 30
0.0
 40
119.999
 50
48.9134
 51
57.7029
  0
LINE
  5
1886
  8
0
  6
CONTINUOUS
 62
     3
 10
195.1
 20
250.9
 30
0.0
 11
217.7
 21
15.8
 31
0.0
  0
LINE
  5
1887
  8
0
  6
CONTINUOUS
 62
     3
 10
270.9
 20
258.2
 30
0.0
 11
295.5
 21
3.5
 31
0.0
  0
LINE
  5
1888
  8
0
  6
CONTINUOUS
 62
     3
 10
106.6
 20
33.5
 30
0.0
 11
37.7
 21
70.4
 31
0.0
  0
LINE
  5
1889
  8
0
  6
CONTINUOUS
 62
     3
 10
152.4
 20
26.3
 30
0.0
 11
78.9
 21
90.3
 31
0.0
  0
LINE
  5
188A
  8
0
  6
CONTINUOUS
 62
     3
 10
275.879562
 20
279.284667
 30
0.0
 11
277.8
 21
258.8
 31
0.0
  0
LINE
  5
188B
  8
0
  6
CONTINUOUS
 62
     3
 10
277.8
 20
258.8
 30
0.0
 11
188.2
 21
250.2
 31
0.0
  0
LINE
  5
188C
  8
0
  6
CONTINUOUS
 62
     3
 10
257.0
 20
341.6
 30
0.0
 11
107.2
 21
261.5
 31
0.0
  0
LINE
  5
188D
  8
0
  6
CONTINUOUS
 62
     3
 10
66.7
 20
273.6
 30
0.0
 11
38.2
 21
326.9
 31
0.0
  0
LINE
  5
188E
  8
0
  6
CONTINUOUS
 62
     3
 10
186.7
 20
266.1
 30
0.0
 11
188.2
 21
250.2
 31
0.0
  0
LINE
  5
188F
  8
0
  6
CONTINUOUS
 62
     3
 10
186.7
 20
266.1
 30
0.0
 11
181.8
 21
301.4
 31
0.0
  0
LINE
  5
1890
  8
0
  6
CONTINUOUS
 62
     3
 10
90.9
 20
-65.2
 30
0.0
 11
14.0
 21
-78.9
 31
0.0
  0
LINE
  5
1891
  8
0
  6
CONTINUOUS
 62
     3
 10
1406.1
 20
-570.1
 30
0.0
 11
2153.8
 21
-570.1
 31
0.0
  0
LINE
  5
1892
  8
0
  6
CONTINUOUS
 62
     3
 10
1473.5
 20
-64.4
 30
0.0
 11
1972.1
 21
-239.1
 31
0.0
  0
LINE
  5
1893
  8
0
  6
CONTINUOUS
 62
     3
 10
1415.0
 20
-670.1
 30
0.0
 11
2385.9
 21
-670.1
 31
0.0
  0
LINE
  5
1894
  8
0
  6
CONTINUOUS
 62
     3
 10
1417.92895
 20
-702.342006
 30
0.0
 11
2900.0
 21
-891.6
 31
0.0
  0
LINE
  5
1895
  8
0
  6
CONTINUOUS
 62
     3
 10
610.0
 20
-350.1
 30
0.0
 11
610.0
 21
-840.1
 31
0.0
  0
LINE
  5
1896
  8
0
  6
CONTINUOUS
 62
     3
 10
588.0
 20
-375.1
 30
0.0
 11
588.0
 21
-825.1
 31
0.0
  0
LINE
  5
1897
  8
0
  6
CONTINUOUS
 62
     3
 10
610.0
 20
-840.1
 30
0.0
 11
929.2
 21
-868.8
 31
0.0
  0
LINE
  5
1898
  8
0
  6
CONTINUOUS
 62
     3
 10
600.0
 20
-840.1
 30
0.0
 11
610.0
 21
-840.1
 31
0.0
  0
LINE
  5
1899
  8
0
  6
CONTINUOUS
 62
     3
 10
859.9
 20
-187.7
 30
0.0
 11
1206.651859
 21
-162.68775
 31
0.0
  0
LINE
  5
189A
  8
0
  6
CONTINUOUS
 62
     3
 10
951.8
 20
-318.4
 30
0.0
 11
1525.217324
 21
-267.180376
 31
0.0
  0
LINE
  5
189B
  8
0
  6
CONTINUOUS
 62
     3
 10
1028.4
 20
-205.2
 30
0.0
 11
1129.691815
 21
-287.312299
 31
0.0
  0
LINE
  5
189C
  8
0
  6
CONTINUOUS
 62
     3
 10
864.3
 20
-87.1
 30
0.0
 11
1207.6
 21
-62.3
 31
0.0
  0
LINE
  5
189D
  8
0
  6
CONTINUOUS
 62
     3
 10
387.9
 20
-179.1
 30
0.0
 11
413.2
 21
-116.5
 31
0.0
  0
LINE
  5
189E
  8
0
  6
CONTINUOUS
 62
     3
 10
610.0
 20
-350.1
 30
0.0
 11
951.8
 21
-318.4
 31
0.0
  0
LINE
  5
189F
  8
0
  6
CONTINUOUS
 62
     3
 10
600.0
 20
-350.1
 30
0.0
 11
610.0
 21
-350.1
 31
0.0
  0
LINE
  5
18A0
  8
0
  6
CONTINUOUS
 62
     3
 10
584.4
 20
-350.4
 30
0.0
 11
600.0
 21
-350.4
 31
0.0
  0
ARC
  5
18A1
  8
0
  6
CONTINUOUS
 62
     3
 10
1000.0
 20
-240.1
 30
0.0
 40
45.0008
 50
50.9417
 51
185.116
  0
LINE
  5
18A2
  8
0
  6
CONTINUOUS
 62
     3
 10
901.3
 20
-209.4
 30
0.0
 11
873.3
 21
-186.7
 31
0.0
  0
LINE
  5
18A3
  8
0
  6
CONTINUOUS
 62
     3
 10
956.9
 20
-263.1
 30
0.0
 11
897.0
 21
-214.8
 31
0.0
  0
LINE
  5
18A4
  8
0
  6
CONTINUOUS
 62
     3
 10
897.0
 20
-214.8
 30
0.0
 11
922.5
 21
-183.2
 31
0.0
  0
LINE
  5
18A5
  8
0
  6
CONTINUOUS
 62
     3
 10
955.2
 20
-244.1
 30
0.0
 11
961.7
 21
-317.5
 31
0.0
  0
LINE
  5
18A6
  8
0
  6
CONTINUOUS
 62
     3
 10
1028.2
 20
-205.1
 30
0.0
 11
994.7
 21
-178.0
 31
0.0
  0
LINE
  5
18A7
  8
0
  6
CONTINUOUS
 62
     3
 10
870.6
 20
-86.7
 30
0.0
 11
507.3
 21
206.8
 31
0.0
  0
LINE
  5
18A8
  8
0
  6
CONTINUOUS
 62
     3
 10
721.9
 20
-64.5
 30
0.0
 11
459.5
 21
147.5
 31
0.0
  0
LINE
  5
18A9
  8
0
  6
CONTINUOUS
 62
     3
 10
380.5
 20
202.4
 30
0.0
 11
455.1
 21
142.1
 31
0.0
  0
LINE
  5
18AA
  8
0
  6
CONTINUOUS
 62
     3
 10
451.6
 20
-21.4
 30
0.0
 11
504.9
 21
110.8
 31
0.0
  0
LINE
  5
18AB
  8
0
  6
CONTINUOUS
 62
     3
 10
455.1
 20
142.1
 30
0.0
 11
511.7
 21
212.1
 31
0.0
  0
LINE
  5
18AC
  8
0
  6
CONTINUOUS
 62
     3
 10
437.0
 20
272.5
 30
0.0
 11
511.7
 21
212.1
 31
0.0
  0
LINE
  5
18AD
  8
0
  6
CONTINUOUS
 62
     3
 10
543.413181
 20
177.625162
 30
0.0
 11
601.6353
 21
322.1454
 31
0.0
  0
LINE
  5
18AE
  8
0
  6
CONTINUOUS
 62
     3
 10
1344.4
 20
-131.5
 30
0.0
 11
1316.7
 21
-195.8
 31
0.0
  0
LINE
  5
18AF
  8
0
  6
CONTINUOUS
 62
     3
 10
1525.217324
 20
-267.180376
 30
0.0
 11
1661.9
 21
-130.4
 31
0.0
  0
LINE
  5
18B0
  8
0
  6
CONTINUOUS
 62
     3
 10
1245.647475
 20
-292.152525
 30
0.0
 11
1473.4
 21
-64.4
 31
0.0
  0
LINE
  5
18B1
  8
0
  6
CONTINUOUS
 62
     3
 10
1318.7
 20
-191.2
 30
0.0
 11
1206.651859
 21
-162.68775
 31
0.0
  0
LINE
  5
18B2
  8
0
  6
CONTINUOUS
 62
     3
 10
1397.0
 20
-468.3
 30
0.0
 11
1828.0
 21
-429.7
 31
0.0
  0
LINE
  5
18B3
  8
0
  6
CONTINUOUS
 62
     3
 10
1316.7
 20
-195.8
 30
0.0
 11
1334.4
 21
-203.4
 31
0.0
  0
LINE
  5
18B4
  8
0
  6
CONTINUOUS
 62
     3
 10
1397.0
 20
-468.3
 30
0.0
 11
1417.92895
 21
-702.342006
 31
0.0
  0
LINE
  5
18B5
  8
0
  6
CONTINUOUS
 62
     3
 10
1129.691815
 20
-287.312299
 30
0.0
 11
1131.1
 21
-302.4
 31
0.0
  0
LINE
  5
18B6
  8
0
  6
CONTINUOUS
 62
     3
 10
1344.4
 20
-131.5
 30
0.0
 11
1387.6
 21
-150.1
 31
0.0
  0
LINE
  5
18B7
  8
0
  6
CONTINUOUS
 62
     3
 10
1342.4
 20
-136.1
 30
0.0
 11
1207.6
 21
-62.3
 31
0.0
  0
LINE
  5
18B8
  8
0
  6
CONTINUOUS
 62
     3
 10
3182.0
 20
-1124.2
 30
0.0
 11
3180.1
 21
-1139.1
 31
0.0
  0
LINE
  5
18B9
  8
0
  6
CONTINUOUS
 62
     3
 10
183.0
 20
438.1
 30
0.0
 11
625.5
 21
909.5
 31
0.0
  0
LINE
  5
18BA
  8
0
  6
CONTINUOUS
 62
     3
 10
1049.887785
 20
1476.955051
 30
0.0
 11
1062.9
 21
1392.6
 31
0.0
  0
LINE
  5
18BB
  8
0
  6
CONTINUOUS
 62
     3
 10
911.5
 20
1469.9
 30
0.0
 11
625.5
 21
909.6
 31
0.0
  0
LINE
  5
18BC
  8
0
  6
CONTINUOUS
 62
     3
 10
767.6
 20
817.0
 30
0.0
 11
816.3
 21
937.5
 31
0.0
  0
LINE
  5
18BD
  8
0
  6
CONTINUOUS
 62
     3
 10
720.9
 20
835.9
 30
0.0
 11
772.3
 21
815.1
 31
0.0
  0
CIRCLE
  5
18BE
  8
0
  6
CONTINUOUS
 62
     3
 10
895.7
 20
1252.0
 30
0.0
 40
35.25
  0
LINE
  5
18BF
  8
0
  6
CONTINUOUS
 62
     3
 10
1062.9
 20
1392.6
 30
0.0
 11
847.7
 21
970.9
 31
0.0
  0
LINE
  5
18C0
  8
0
  6
CONTINUOUS
 62
     3
 10
911.4
 20
1469.9
 30
0.0
 11
987.5
 21
1508.9
 31
0.0
  0
LINE
  5
18C1
  8
0
  6
CONTINUOUS
 62
     3
 10
987.5
 20
1508.9
 30
0.0
 11
1049.887785
 21
1476.955051
 31
0.0
  0
POINT
  5
18C2
  8
ô_
 62
     1
 10
4300.0
 20
-1140.1
 30
0.0
  0
LINE
  5
18C3
  8
0
  6
CONTINUOUS
 62
     3
 10
4100.0
 20
-375.1
 30
0.0
 11
4100.0
 21
-981.2
 31
0.0
  0
LINE
  5
18C4
  8
0
  6
CONTINUOUS
 62
     3
 10
3977.9
 20
-260.1
 30
0.0
 11
3977.9
 21
-1270.1
 31
0.0
  0
LINE
  5
18C5
  8
0
  6
CONTINUOUS
 62
     3
 10
3977.9
 20
-957.7
 30
0.0
 11
4380.0
 21
-1035.1
 31
0.0
  0
LINE
  5
18C6
  8
0
  6
CONTINUOUS
 62
     3
 10
3990.0
 20
-1270.1
 30
0.0
 11
4380.0
 21
-1245.1
 31
0.0
  0
LINE
  5
18C7
  8
0
  6
CONTINUOUS
 62
     3
 10
3581.2
 20
-1219.5
 30
0.0
 11
3978.0
 21
-1270.2
 31
0.0
  0
LINE
  5
18C8
  8
0
  6
CONTINUOUS
 62
     3
 10
3977.9
 20
-1270.1
 30
0.0
 11
3989.9
 21
-1270.1
 31
0.0
  0
LINE
  5
18C9
  8
0
  6
CONTINUOUS
 62
     3
 10
3612.5
 20
-974.3
 30
0.0
 11
3977.9
 21
-968.7
 31
0.0
  0
CIRCLE
  5
18CA
  8
0
  6
CONTINUOUS
 62
     3
 10
3420.8
 20
-1064.3
 30
0.0
 40
13.0
  0
CIRCLE
  5
18CB
  8
0
  6
CONTINUOUS
 62
     3
 10
3420.8
 20
-1064.3
 30
0.0
 40
19.05
  0
LINE
  5
18CC
  8
0
  6
CONTINUOUS
 62
     3
 10
3612.5
 20
-974.3
 30
0.0
 11
3581.2
 21
-1219.5
 31
0.0
  0
LINE
  5
18CD
  8
0
  6
CONTINUOUS
 62
     3
 10
3472.1
 20
-1193.5
 30
0.0
 11
3470.8
 21
-1203.4
 31
0.0
  0
LINE
  5
18CE
  8
0
  6
CONTINUOUS
 62
     3
 10
3470.8
 20
-1203.4
 30
0.0
 11
3581.4
 21
-1217.5
 31
0.0
  0
LINE
  5
18CF
  8
0
  6
CONTINUOUS
 62
     3
 10
3350.6
 20
-1085.7
 30
0.0
 11
3388.2
 21
-998.5
 31
0.0
  0
LINE
  5
18D0
  8
0
  6
CONTINUOUS
 62
     3
 10
3455.4
 20
-1047.1
 30
0.0
 11
3608.7
 21
-1003.9
 31
0.0
  0
LINE
  5
18D1
  8
0
  6
CONTINUOUS
 62
     3
 10
3430.8
 20
-1041.1
 30
0.0
 11
3411.0
 21
-1087.1
 31
0.0
  0
LINE
  5
18D2
  8
0
  6
CONTINUOUS
 62
     3
 10
3381.2
 20
-1014.6
 30
0.0
 11
3409.7
 21
-1026.8
 31
0.0
  0
LINE
  5
18D3
  8
0
  6
CONTINUOUS
 62
     3
 10
3357.5
 20
-1069.7
 30
0.0
 11
3386.0
 21
-1081.9
 31
0.0
  0
LINE
  5
18D4
  8
0
  6
CONTINUOUS
 62
     3
 10
3473.8
 20
-1004.4
 30
0.0
 11
3427.9
 21
-984.6
 31
0.0
  0
LINE
  5
18D5
  8
0
  6
CONTINUOUS
 62
     3
 10
3427.9
 20
-984.6
 30
0.0
 11
3369.3
 21
-1120.7
 31
0.0
  0
LINE
  5
18D6
  8
0
  6
CONTINUOUS
 62
     3
 10
3473.8
 20
-1004.4
 30
0.0
 11
3415.2
 21
-1140.5
 31
0.0
  0
LINE
  5
18D7
  8
0
  6
CONTINUOUS
 62
     3
 10
3415.2
 20
-1140.5
 30
0.0
 11
3369.3
 21
-1120.7
 31
0.0
  0
LINE
  5
18D8
  8
0
  6
CONTINUOUS
 62
     3
 10
3355.0
 20
-1075.4
 30
0.0
 11
3364.6
 21
-1072.7
 31
0.0
  0
LINE
  5
18D9
  8
0
  6
CONTINUOUS
 62
     3
 10
3977.7
 20
-980.7
 30
0.0
 11
3978.0
 21
-984.7
 31
0.0
  0
LINE
  5
18DA
  8
0
  6
CONTINUOUS
 62
     3
 10
3977.9
 20
-980.7
 30
0.0
 11
3978.0
 21
-984.7
 31
0.0
  0
ARC
  5
18DB
  8
0
  6
CONTINUOUS
 62
     3
 10
4300.0
 20
-1140.1
 30
0.0
 40
60.0
 50
104.589
 51
255.946
  0
ARC
  5
18DC
  8
0
  6
CONTINUOUS
 62
     3
 10
4370.0
 20
-1231.3
 30
0.0
 40
10.0
 50
0.0
 51
74.9907
  0
ARC
  5
18DD
  8
0
  6
CONTINUOUS
 62
     3
 10
4370.0
 20
-1048.8
 30
0.0
 40
10.0004
 50
285.009
 51
0.0
  0
LINE
  5
18DE
  8
0
  6
CONTINUOUS
 62
     3
 10
4380.0
 20
-1231.3
 30
0.0
 11
4380.0
 21
-1245.1
 31
0.0
  0
LINE
  5
18DF
  8
0
  6
CONTINUOUS
 62
     3
 10
4380.0
 20
-1231.3
 30
0.0
 11
4380.0
 21
-1245.1
 31
0.0
  0
LINE
  5
18E0
  8
0
  6
CONTINUOUS
 62
     3
 10
4380.0
 20
-1035.1
 30
0.0
 11
4380.0
 21
-1048.8
 31
0.0
  0
LINE
  5
18E1
  8
0
  6
CONTINUOUS
 62
     3
 10
4284.5
 20
-1198.0
 30
0.0
 11
4372.6
 21
-1221.6
 31
0.0
  0
LINE
  5
18E2
  8
0
  6
CONTINUOUS
 62
     3
 10
4284.6
 20
-1082.1
 30
0.0
 11
4372.7
 21
-1058.5
 31
0.0
  0
POINT
  5
18E3
  8
ô_
 62
     1
 10
4300.0
 20
-140.1
 30
0.0
  0
LINE
  5
18E4
  8
0
  6
CONTINUOUS
 62
     3
 10
3890.9
 20
-56.3
 30
0.0
 11
4290.7
 21
-20.5
 31
0.0
  0
LINE
  5
18E5
  8
0
  6
CONTINUOUS
 62
     3
 10
3909.1
 20
-260.1
 30
0.0
 11
4300.0
 21
-260.1
 31
0.0
  0
LINE
  5
18E6
  8
0
  6
CONTINUOUS
 62
     3
 10
3885.4
 20
-84.9
 30
0.0
 11
3897.9
 21
-224.3
 31
0.0
  0
LINE
  5
18E7
  8
0
  6
CONTINUOUS
 62
     3
 10
3489.7
 20
-150.4
 30
0.0
 11
3897.9
 21
-224.3
 31
0.0
  0
LINE
  5
18E8
  8
0
  6
CONTINUOUS
 62
     3
 10
3890.9
 20
-56.3
 30
0.0
 11
3909.1
 21
-260.1
 31
0.0
  0
LINE
  5
18E9
  8
0
  6
CONTINUOUS
 62
     3
 10
3487.0
 20
-120.5
 30
0.0
 11
3885.4
 21
-84.9
 31
0.0
  0
LINE
  5
18EA
  8
0
  6
CONTINUOUS
 62
     3
 10
3432.9
 20
-99.3
 30
0.0
 11
3891.0
 21
-58.3
 31
0.0
  0
LINE
  5
18EB
  8
0
  6
CONTINUOUS
 62
     3
 10
3432.9
 20
-99.3
 30
0.0
 11
3433.7
 21
-108.2
 31
0.0
  0
LINE
  5
18EC
  8
0
  6
CONTINUOUS
 62
     3
 10
3487.0
 20
-120.5
 30
0.0
 11
3489.6
 21
-150.4
 31
0.0
  0
CIRCLE
  5
18ED
  8
0
  6
CONTINUOUS
 62
     3
 10
4300.0
 20
-140.1
 30
0.0
 40
50.0
  0
CIRCLE
  5
18EE
  8
0
  6
CONTINUOUS
 62
     3
 10
4300.0
 20
-140.1
 30
0.0
 40
50.0
  0
ARC
  5
18EF
  8
0
  6
CONTINUOUS
 62
     3
 10
4300.0
 20
-140.1
 30
0.0
 40
120.0
 50
270.0
 51
95.1172
  0
LINE
  5
18F0
  8
0
  6
CONTINUOUS
 62
     3
 10
4200.0
 20
-260.1
 30
0.0
 11
4200.0
 21
-275.1
 31
0.0
  0
LINE
  5
18F1
  8
0
  6
CONTINUOUS
 62
     3
 10
4200.1
 20
-275.1
 30
0.0
 11
4100.1
 21
-375.1
 31
0.0
  0
ENDBLK
  5
18F2
  8
0
  0
BLOCK
  8
0
  2
B110126
 70
     0
 10
0.0
 20
0.0
 30
0.0
  3
B110126
  1

  0
LINE
  5
196B
  8
0
  6
CONTINUOUS
 62
     3
 10
907.994268
 20
1996.053357
 30
0.0
 11
658.855335
 21
2091.695381
 31
0.0
  0
LINE
  5
196C
  8
0
  6
CONTINUOUS
 62
     3
 10
2718.5
 20
7461.1
 30
0.0
 11
-6.9
 21
356.1
 31
0.0
  0
LINE
  5
196D
  8
0
  6
CONTINUOUS
 62
     3
 10
2968.6
 20
7365.1
 30
0.0
 11
241.9
 21
260.5
 31
0.0
  0
LINE
  5
196E
  8
0
  6
CONTINUOUS
 62
     3
 10
-4291.263545
 20
6298.096633
 30
0.0
 11
-459.4
 21
471.0
 31
0.0
  0
LINE
  5
196F
  8
0
  6
CONTINUOUS
 62
     3
 10
-4082.282377
 20
6435.373201
 30
0.0
 11
-250.5
 21
608.4
 31
0.0
  0
POINT
  5
1970
  8
ô_
 62
     1
 10
0.0
 20
0.0
 30
0.0
  0
LINE
  5
1971
  8
0
  6
CONTINUOUS
 62
     3
 10
242.0
 20
260.5
 30
0.0
 11
51.1
 21
-106.7
 31
0.0
  0
LINE
  5
1972
  8
0
  6
CONTINUOUS
 62
     3
 10
241.9
 20
260.5
 30
0.0
 11
-105.8
 21
394.0
 31
0.0
  0
CIRCLE
  5
1973
  8
0
  6
CONTINUOUS
 62
     3
 10
-247.3
 20
375.9
 30
0.0
 40
40.0
  0
ARC
  5
1974
  8
0
  6
CONTINUOUS
 62
     3
 10
-247.3
 20
375.9
 30
0.0
 40
79.9997
 50
63.1653
 51
212.055
  0
LINE
  5
1975
  8
0
  6
CONTINUOUS
 62
     3
 10
-308.9
 20
323.5
 30
0.0
 11
-456.9
 21
453.6
 31
0.0
  0
LINE
  5
1976
  8
0
  6
CONTINUOUS
 62
     3
 10
-315.0
 20
333.4
 30
0.0
 11
-76.9
 21
-46.9
 31
0.0
  0
CIRCLE
  5
1977
  8
0
  6
CONTINUOUS
 62
     3
 10
0.0
 20
0.0
 30
0.0
 40
45.25
  0
ARC
  5
1978
  8
0
  6
CONTINUOUS
 62
     3
 10
42.2
 20
-102.1
 30
0.0
 40
10.0
 50
240.767
 51
332.5302
  0
LINE
  5
1979
  8
0
  6
CONTINUOUS
 62
     3
 10
-76.9
 20
-46.9
 30
0.0
 11
37.4
 21
-110.8
 31
0.0
  0
LINE
  5
197A
  8
0
  6
CONTINUOUS
 62
     3
 10
-244.3
 20
612.5
 30
0.0
 11
-465.7
 21
466.9
 31
0.0
  0
LINE
  5
197B
  8
0
  6
CONTINUOUS
 62
     3
 10
-465.7
 20
466.9
 30
0.0
 11
-456.9
 21
453.5
 31
0.0
  0
LINE
  5
197C
  8
0
  6
CONTINUOUS
 62
     3
 10
-181.4
 20
432.3
 30
0.0
 11
-235.5
 21
599.1
 31
0.0
  0
LINE
  5
197D
  8
0
  6
CONTINUOUS
 62
     3
 10
-244.3
 20
612.5
 30
0.0
 11
-235.5
 21
599.1
 31
0.0
  0
LINE
  5
197E
  8
0
  6
CONTINUOUS
 62
     3
 10
-105.8
 20
394.0
 30
0.0
 11
-211.1
 21
447.3
 31
0.0
  0
LINE
  5
197F
  8
0
  6
CONTINUOUS
 62
     3
 10
-515.9
 20
1190.7
 30
0.0
 11
242.2
 21
1270.0
 31
0.0
  0
LINE
  5
1980
  8
0
  6
CONTINUOUS
 62
     3
 10
-506.5
 20
1115.1
 30
0.0
 11
217.7
 21
1190.8
 31
0.0
  0
ARC
  5
1981
  8
0
  6
CONTINUOUS
 62
     3
 10
-523.9
 20
1151.5
 30
0.0
 40
40.0004
 50
303.328
 51
90.782
  0
LINE
  5
1982
  8
0
  6
CONTINUOUS
 62
     3
 10
-560.4
 20
1079.7
 30
0.0
 11
-501.9
 21
1118.1
 31
0.0
  0
LINE
  5
1983
  8
0
  6
CONTINUOUS
 62
     3
 10
-610.5
 20
1190.3
 30
0.0
 11
-524.4
 21
1191.5
 31
0.0
  0
LINE
  5
1984
  8
0
  6
CONTINUOUS
 62
     3
 10
-626.3
 20
1179.9
 30
0.0
 11
-610.5
 21
1190.3
 31
0.0
  0
ARC
  5
1985
  8
0
  6
CONTINUOUS
 62
     3
 10
257.1
 20
1197.3
 30
0.0
 40
40.0
 50
158.998
 51
249.0
  0
ARC
  5
1986
  8
0
  6
CONTINUOUS
 62
     3
 10
307.3
 20
1328.0
 30
0.0
 40
40.0006
 50
69.0
 51
158.998
  0
LINE
  5
1987
  8
0
  6
CONTINUOUS
 62
     3
 10
270.0
 20
1342.3
 30
0.0
 11
219.8
 21
1211.6
 31
0.0
  0
LINE
  5
1988
  8
0
  6
CONTINUOUS
 62
     3
 10
294.2
 20
1140.2
 30
0.0
 11
242.8
 21
1159.9
 31
0.0
  0
LINE
  5
1989
  8
0
  6
CONTINUOUS
 62
     3
 10
373.0
 20
1345.6
 30
0.0
 11
321.7
 21
1365.3
 31
0.0
  0
LINE
  5
198A
  8
0
  6
CONTINUOUS
 62
     3
 10
2350.6
 20
7182.5
 30
0.0
 11
-726.7
 21
6722.8
 31
0.0
  0
LINE
  5
198B
  8
0
  6
CONTINUOUS
 62
     3
 10
2338.2
 20
7291.8
 30
0.0
 11
-746.6
 21
6831.1
 31
0.0
  0
ARC
  5
198C
  8
0
  6
CONTINUOUS
 62
     3
 10
-4120.8
 20
6266.4
 30
0.0
 40
222.499
 50
32.342
 51
253.601
  0
ARC
  5
198D
  8
0
  6
CONTINUOUS
 62
     3
 10
-3824.1
 20
6310.7
 30
0.0
 40
90.0001
 50
278.495
 51
98.4949
  0
LINE
  5
198E
  8
0
  6
CONTINUOUS
 62
     3
 10
-3698.3
 20
6380.2
 30
0.0
 11
-3808.7
 21
6399.4
 31
0.0
  0
LINE
  5
198F
  8
0
  6
CONTINUOUS
 62
     3
 10
-4082.282377
 20
6435.373201
 30
0.0
 11
-4291.263545
 21
6298.096633
 31
0.0
  0
LINE
  5
1990
  8
0
  6
CONTINUOUS
 62
     3
 10
-4039.0
 20
6369.6
 30
0.0
 11
-3834.7
 21
6400.1
 31
0.0
  0
LINE
  5
1991
  8
0
  6
CONTINUOUS
 62
     3
 10
-1054.3
 20
6679.0
 30
0.0
 11
-3653.1
 21
6290.8
 31
0.0
  0
LINE
  5
1992
  8
0
  6
CONTINUOUS
 62
     3
 10
-1067.6
 20
6768.0
 30
0.0
 11
-3666.4
 21
6379.8
 31
0.0
  0
CIRCLE
  5
1993
  8
0
  6
CONTINUOUS
 62
     3
 10
-4120.8
 20
6266.4
 30
0.0
 40
65.0
  0
ARC
  5
1994
  8
0
  6
CONTINUOUS
 62
     3
 10
-4140.8
 20
5960.1
 30
0.0
 40
35.0059
 50
184.729
 51
303.329
  0
LINE
  5
1995
  8
0
  6
CONTINUOUS
 62
     3
 10
-4175.7
 20
5957.2
 30
0.0
 11
-4189.6
 21
6125.3
 31
0.0
  0
LINE
  5
1996
  8
0
  6
CONTINUOUS
 62
     3
 10
-4189.6
 20
6125.3
 30
0.0
 11
-4181.2
 21
6130.8
 31
0.0
  0
LINE
  5
1997
  8
0
  6
CONTINUOUS
 62
     3
 10
-4121.5
 20
5930.8
 30
0.0
 11
-4071.4
 21
5963.8
 31
0.0
  0
ARC
  5
1998
  8
0
  6
CONTINUOUS
 62
     3
 10
-3681.2
 20
6478.7
 30
0.0
 40
99.9998
 50
260.116
 51
278.495
  0
ARC
  5
1999
  8
0
  6
CONTINUOUS
 62
     3
 10
-3638.4
 20
6191.9
 30
0.0
 40
100.0
 50
98.4945
 51
116.874
  0
CIRCLE
  5
199A
  8
0
  6
CONTINUOUS
 62
     3
 10
-3824.1
 20
6310.7
 30
0.0
 40
39.9999
  0
LINE
  5
199B
  8
0
  6
CONTINUOUS
 62
     3
 10
-3683.5
 20
6281.1
 30
0.0
 11
-3783.4
 21
6230.5
 31
0.0
  0
LINE
  5
199C
  8
0
  6
CONTINUOUS
 62
     3
 10
-3930.1
 20
6203.9
 30
0.0
 11
-3810.8
 21
6221.7
 31
0.0
  0
LINE
  5
199D
  8
0
  6
CONTINUOUS
 62
     3
 10
-1037.1
 20
6777.7
 30
0.0
 11
-937.2
 21
6828.3
 31
0.0
  0
LINE
  5
199E
  8
0
  6
CONTINUOUS
 62
     3
 10
-1022.4
 20
6678.6
 30
0.0
 11
-912.1
 21
6659.3
 31
0.0
  0
ARC
  5
199F
  8
0
  6
CONTINUOUS
 62
     3
 10
-1039.6
 20
6580.0
 30
0.0
 40
100.0
 50
80.1156
 51
98.4945
  0
ARC
  5
19A0
  8
0
  6
CONTINUOUS
 62
     3
 10
-1082.4
 20
6866.9
 30
0.0
 40
99.9995
 50
278.495
 51
296.874
  0
ARC
  5
19A1
  8
0
  6
CONTINUOUS
 62
     3
 10
-761.4
 20
6930.0
 30
0.0
 40
100.0
 50
266.442
 51
278.495
  0
ARC
  5
19A2
  8
0
  6
CONTINUOUS
 62
     3
 10
-712.0
 20
6623.9
 30
0.0
 40
100.0
 50
98.4945
 51
114.755
  0
CIRCLE
  5
19A3
  8
0
  6
CONTINUOUS
 62
     3
 10
-896.6
 20
6748.0
 30
0.0
 40
39.9999
  0
CIRCLE
  5
19A4
  8
0
  6
CONTINUOUS
 62
     3
 10
-896.6
 20
6748.0
 30
0.0
 40
39.9999
  0
ARC
  5
19A5
  8
0
  6
CONTINUOUS
 62
     3
 10
-896.6
 20
6748.0
 30
0.0
 40
89.9997
 50
86.4416
 51
294.618
  0
LINE
  5
19A6
  8
0
  6
CONTINUOUS
 62
     3
 10
-753.8
 20
6714.7
 30
0.0
 11
-858.9
 21
6666.3
 31
0.0
  0
LINE
  5
19A7
  8
0
  6
CONTINUOUS
 62
     3
 10
-767.6
 20
6830.2
 30
0.0
 11
-891.0
 21
6837.8
 31
0.0
  0
ARC
  5
19A8
  8
0
  6
CONTINUOUS
 62
     3
 10
2802.4
 20
7300.5
 30
0.0
 40
222.501
 50
308.433
 51
162.692
  0
ARC
  5
19A9
  8
0
  6
CONTINUOUS
 62
     3
 10
3079.3
 20
7053.8
 30
0.0
 40
15.0014
 50
206.762
 51
26.7619
  0
ARC
  5
19AA
  8
0
  6
CONTINUOUS
 62
     3
 10
3079.3
 20
7053.8
 30
0.0
 40
24.0012
 50
206.76
 51
26.76
  0
LINE
  5
19AB
  8
0
  6
CONTINUOUS
 62
     3
 10
3126.8
 20
6724.9
 30
0.0
 11
3072.3
 21
6697.5
 31
0.0
  0
LINE
  5
19AC
  8
0
  6
CONTINUOUS
 62
     3
 10
3126.8
 20
6724.9
 30
0.0
 11
3005.7
 21
6965.1
 31
0.0
  0
LINE
  5
19AD
  8
0
  6
CONTINUOUS
 62
     3
 10
3065.6
 20
7114.1
 30
0.0
 11
3092.6
 21
7060.5
 31
0.0
  0
LINE
  5
19AE
  8
0
  6
CONTINUOUS
 62
     3
 10
3073.6
 20
7118.1
 30
0.0
 11
3100.6
 21
7064.5
 31
0.0
  0
LINE
  5
19AF
  8
0
  6
CONTINUOUS
 62
     3
 10
3072.3
 20
6697.5
 30
0.0
 11
2951.2
 21
6937.6
 31
0.0
  0
ARC
  5
19B0
  8
0
  6
CONTINUOUS
 62
     3
 10
2323.2
 20
7390.7
 30
0.0
 40
99.9995
 50
278.495
 51
290.548
  0
ARC
  5
19B1
  8
0
  6
CONTINUOUS
 62
     3
 10
2365.3
 20
7083.5
 30
0.0
 40
100.0
 50
82.2341
 51
98.4945
  0
CIRCLE
  5
19B2
  8
0
  6
CONTINUOUS
 62
     3
 10
2505.7
 20
7256.2
 30
0.0
 40
39.9999
  0
ARC
  5
19B3
  8
0
  6
CONTINUOUS
 62
     3
 10
2505.7
 20
7256.2
 30
0.0
 40
89.9999
 50
262.493
 51
110.547
  0
LINE
  5
19B4
  8
0
  6
CONTINUOUS
 62
     3
 10
2486.5
 20
7344.1
 30
0.0
 11
2690.732427
 21
7388.711139
 31
0.0
  0
LINE
  5
19B5
  8
0
  6
CONTINUOUS
 62
     3
 10
2358.4
 20
7297.1
 30
0.0
 11
2474.1
 21
7340.5
 31
0.0
  0
LINE
  5
19B6
  8
0
  6
CONTINUOUS
 62
     3
 10
2511.8
 20
7166.4
 30
0.0
 11
2608.493159
 21
7174.316919
 31
0.0
  0
LINE
  5
19B7
  8
0
  6
CONTINUOUS
 62
     3
 10
2378.8
 20
7182.6
 30
0.0
 11
2493.5
 21
7167.0
 31
0.0
  0
ARC
  5
19B8
  8
0
  6
CONTINUOUS
 62
     3
 10
3052.2
 20
7107.4
 30
0.0
 40
15.0014
 50
26.7619
 51
206.762
  0
ARC
  5
19B9
  8
0
  6
CONTINUOUS
 62
     3
 10
3052.2
 20
7107.4
 30
0.0
 40
24.0012
 50
26.76
 51
206.76
  0
CIRCLE
  5
19BA
  8
0
  6
CONTINUOUS
 62
     3
 10
2802.4
 20
7300.5
 30
0.0
 40
54.9987
  0
CIRCLE
  5
19BB
  8
0
  6
CONTINUOUS
 62
     3
 10
2802.4
 20
7300.5
 30
0.0
 40
54.9987
  0
CIRCLE
  5
19BC
  8
0
  6
CONTINUOUS
 62
     3
 10
2802.4
 20
7300.5
 30
0.0
 40
55.0
  0
LINE
  5
19BD
  8
0
  6
CONTINUOUS
 62
     3
 10
2960.2
 20
7368.4
 30
0.0
 11
2968.6
 21
7365.2
 31
0.0
  0
LINE
  5
19BE
  8
0
  6
CONTINUOUS
 62
     3
 10
2904.5
 20
7198.0
 30
0.0
 11
3015.9
 21
6977.0
 31
0.0
  0
LINE
  5
19BF
  8
0
  6
CONTINUOUS
 62
     3
 10
2995.756031
 20
6979.138034
 30
0.0
 11
3010.6
 21
6974.3
 31
0.0
  0
LINE
  5
19C0
  8
0
  6
CONTINUOUS
 62
     3
 10
2951.2
 20
6937.6
 30
0.0
 11
2946.7
 21
6941.0
 31
0.0
  0
LINE
  5
19C1
  8
0
  6
CONTINUOUS
 62
     3
 10
2948.9
 20
6947.7
 30
0.0
 11
2946.7
 21
6941.0
 31
0.0
  0
LINE
  5
19C2
  8
0
  6
CONTINUOUS
 62
     3
 10
3005.6
 20
6970.7
 30
0.0
 11
3005.7
 21
6965.1
 31
0.0
  0
LINE
  5
19C3
  8
0
  6
CONTINUOUS
 62
     3
 10
3005.6
 20
6970.7
 30
0.0
 11
2998.9
 21
6972.9
 31
0.0
  0
LINE
  5
19C4
  8
0
  6
CONTINUOUS
 62
     3
 10
3038.8
 20
7100.6
 30
0.0
 11
3065.8
 21
7047.0
 31
0.0
  0
LINE
  5
19C5
  8
0
  6
CONTINUOUS
 62
     3
 10
3056.5
 20
7036.7
 30
0.0
 11
3058.2
 21
7042.1
 31
0.0
  0
LINE
  5
19C6
  8
0
  6
CONTINUOUS
 62
     3
 10
3025.0
 20
7099.2
 30
0.0
 11
3030.3
 21
7097.4
 31
0.0
  0
LINE
  5
19C7
  8
0
  6
CONTINUOUS
 62
     3
 10
3056.5
 20
7036.7
 30
0.0
 11
3051.1
 21
7034.0
 31
0.0
  0
LINE
  5
19C8
  8
0
  6
CONTINUOUS
 62
     3
 10
3025.0
 20
7099.2
 30
0.0
 11
3019.6
 21
7096.5
 31
0.0
  0
LINE
  5
19C9
  8
0
  6
CONTINUOUS
 62
     3
 10
3051.8
 20
7032.6
 30
0.0
 11
3011.6
 21
7012.3
 31
0.0
  0
LINE
  5
19CA
  8
0
  6
CONTINUOUS
 62
     3
 10
3019.0
 20
7097.8
 30
0.0
 11
2978.7
 21
7077.5
 31
0.0
  0
LINE
  5
19CB
  8
0
  6
CONTINUOUS
 62
     3
 10
3018.9
 20
7097.8
 30
0.0
 11
3051.8
 21
7032.6
 31
0.0
  0
LINE
  5
19CC
  8
0
  6
CONTINUOUS
 62
     3
 10
2959.6
 20
7088.6
 30
0.0
 11
2970.4
 21
7094.0
 31
0.0
  0
LINE
  5
19CD
  8
0
  6
CONTINUOUS
 62
     3
 10
2970.4
 20
7094.0
 30
0.0
 11
3019.9
 21
6995.8
 31
0.0
  0
LINE
  5
19CE
  8
0
  6
CONTINUOUS
 62
     3
 10
3019.9
 20
6995.8
 30
0.0
 11
3009.2
 21
6990.4
 31
0.0
  0
LINE
  5
19CF
  8
0
  6
CONTINUOUS
 62
     3
 10
3015.9
 20
6977.0
 30
0.0
 11
3010.6
 21
6974.3
 31
0.0
  0
LINE
  5
19D0
  8
0
  6
CONTINUOUS
 62
     3
 10
2940.9
 20
6939.2
 30
0.0
 11
2935.6
 21
6936.5
 31
0.0
  0
LINE
  5
19D1
  8
0
  6
CONTINUOUS
 62
     3
 10
2945.745933
 20
6953.958069
 30
0.0
 11
2940.9
 21
6939.2
 31
0.0
  0
LINE
  5
19D2
  8
0
  6
CONTINUOUS
 62
     3
 10
2998.9
 20
6972.9
 30
0.0
 11
2896.246387
 21
7176.577803
 31
0.0
  0
LINE
  5
19D3
  8
0
  6
CONTINUOUS
 62
     3
 10
2906.0
 20
6968.6
 30
0.0
 11
2899.8
 21
6965.5
 31
0.0
  0
LINE
  5
19D4
  8
0
  6
CONTINUOUS
 62
     3
 10
2894.4
 20
6967.3
 30
0.0
 11
2899.7
 21
6965.5
 31
0.0
  0
LINE
  5
19D5
  8
0
  6
CONTINUOUS
 62
     3
 10
2928.8
 20
6949.9
 30
0.0
 11
2918.1
 21
6944.5
 31
0.0
  0
LINE
  5
19D6
  8
0
  6
CONTINUOUS
 62
     3
 10
2948.9
 20
6947.7
 30
0.0
 11
2869.140802
 21
7105.952378
 31
0.0
  0
LINE
  5
19D7
  8
0
  6
CONTINUOUS
 62
     3
 10
2718.5
 20
7461.2
 30
0.0
 11
2726.9
 21
7458.0
 31
0.0
  0
LINE
  5
19D8
  8
0
  6
CONTINUOUS
 62
     3
 10
2880.8
 20
7018.6
 30
0.0
 11
2874.6
 21
7015.5
 31
0.0
  0
LINE
  5
19D9
  8
0
  6
CONTINUOUS
 62
     3
 10
2872.8
 20
7010.1
 30
0.0
 11
2874.5
 21
7015.5
 31
0.0
  0
LINE
  5
19DA
  8
0
  6
CONTINUOUS
 62
     3
 10
2868.6
 20
7042.7
 30
0.0
 11
2879.3
 21
7048.1
 31
0.0
  0
LINE
  5
19DB
  8
0
  6
CONTINUOUS
 62
     3
 10
2935.6
 20
6936.5
 30
0.0
 11
2860.9
 21
7084.5
 31
0.0
  0
LINE
  5
19DC
  8
0
  6
CONTINUOUS
 62
     3
 10
2872.7
 20
7010.1
 30
0.0
 11
2894.4
 21
6967.2
 31
0.0
  0
LINE
  5
19DD
  8
0
  6
CONTINUOUS
 62
     3
 10
2918.1
 20
6944.5
 30
0.0
 11
2868.6
 21
7042.7
 31
0.0
  0
LINE
  5
19DE
  8
0
  6
CONTINUOUS
 62
     3
 10
2722.2
 20
7459.7
 30
0.0
 11
2968.6
 21
7365.1
 31
0.0
  0
ENDBLK
  5
19DF
  8
0
  0
BLOCK
  8
0
  2
B110131
 70
     0
 10
0.0
 20
0.0
 30
0.0
  3
B110131
  1

  0
LINE
  5
1A55
  8
0
  6
CONTINUOUS
 62
     3
 10
-104.0
 20
-36.09
 30
0.0
 11
-2723.12
 21
-200.91
 31
0.0
  0
LINE
  5
1A56
  8
0
  6
CONTINUOUS
 62
     3
 10
-104.0
 20
-763.93
 30
0.0
 11
-2723.12
 21
-599.11
 31
0.0
  0
LINE
  5
1A57
  8
0
  6
CONTINUOUS
 62
     3
 10
-64.0
 20
-840.710226
 30
0.0
 11
-3209.6
 21
-615.47
 31
0.0
  0
LINE
  5
1A58
  8
0
  6
CONTINUOUS
 62
     3
 10
-308.371656
 20
23.19203
 30
0.0
 11
-3209.6
 21
-184.55
 31
0.0
  0
POINT
  5
1A59
  8
ô_
 62
     1
 10
-4000.0
 20
-400.0
 30
0.0
  0
POLYLINE
  5
1A5A
  8
0
  6
CONTINUOUS
 62
     3
 66
     1
 10
0.0
 20
0.0
 30
0.0
  0
VERTEX
  5
1A5B
  8
0
 62
     3
 10
-2925.98
 20
-333.26
 30
0.0
  0
VERTEX
  5
1A5C
  8
0
 62
     3
 10
-2931.77
 20
-337.48
 30
0.0
  0
VERTEX
  5
1A5D
  8
0
 62
     3
 10
-2937.15
 20
-342.2
 30
0.0
  0
VERTEX
  5
1A5E
  8
0
 62
     3
 10
-2942.09
 20
-347.39
 30
0.0
  0
VERTEX
  5
1A5F
  8
0
 62
     3
 10
-2946.55
 20
-353.0
 30
0.0
  0
VERTEX
  5
1A60
  8
0
 62
     3
 10
-2950.49
 20
-358.99
 30
0.0
  0
VERTEX
  5
1A61
  8
0
 62
     3
 10
-2953.88
 20
-365.31
 30
0.0
  0
VERTEX
  5
1A62
  8
0
 62
     3
 10
-2956.69
 20
-371.91
 30
0.0
  0
VERTEX
  5
1A63
  8
0
 62
     3
 10
-2958.9
 20
-378.73
 30
0.0
  0
VERTEX
  5
1A64
  8
0
 62
     3
 10
-2960.49
 20
-385.73
 30
0.0
  0
VERTEX
  5
1A65
  8
0
 62
     3
 10
-2961.45
 20
-392.83
 30
0.0
  0
VERTEX
  5
1A66
  8
0
 62
     3
 10
-2961.77
 20
-400.0
 30
0.0
  0
VERTEX
  5
1A67
  8
0
 62
     3
 10
-2961.45
 20
-407.17
 30
0.0
  0
VERTEX
  5
1A68
  8
0
 62
     3
 10
-2960.49
 20
-414.28
 30
0.0
  0
VERTEX
  5
1A69
  8
0
 62
     3
 10
-2958.9
 20
-421.27
 30
0.0
  0
VERTEX
  5
1A6A
  8
0
 62
     3
 10
-2956.69
 20
-428.1
 30
0.0
  0
VERTEX
  5
1A6B
  8
0
 62
     3
 10
-2953.88
 20
-434.69
 30
0.0
  0
VERTEX
  5
1A6C
  8
0
 62
     3
 10
-2950.49
 20
-441.01
 30
0.0
  0
VERTEX
  5
1A6D
  8
0
 62
     3
 10
-2946.55
 20
-447.0
 30
0.0
  0
VERTEX
  5
1A6E
  8
0
 62
     3
 10
-2942.09
 20
-452.61
 30
0.0
  0
VERTEX
  5
1A6F
  8
0
 62
     3
 10
-2937.15
 20
-457.8
 30
0.0
  0
VERTEX
  5
1A70
  8
0
 62
     3
 10
-2931.77
 20
-462.52
 30
0.0
  0
VERTEX
  5
1A71
  8
0
 62
     3
 10
-2925.98
 20
-466.74
 30
0.0
  0
SEQEND
  5
1A72
  8
0
 62
     3
  0
LINE
  5
1A73
  8
0
  6
CONTINUOUS
 62
     3
 10
-2297.21
 20
-364.88
 30
0.0
 11
-2177.03
 21
-166.54
 31
0.0
  0
LINE
  5
1A74
  8
0
  6
CONTINUOUS
 62
     3
 10
-2275.93
 20
-400.01
 30
0.0
 11
-2132.79
 21
-163.76
 31
0.0
  0
LINE
  5
1A75
  8
0
  6
CONTINUOUS
 62
     3
 10
-2512.22
 20
-187.64
 30
0.0
 11
-2767.68
 21
-570.24
 31
0.0
  0
LINE
  5
1A76
  8
0
  6
CONTINUOUS
 62
     3
 10
-2466.53
 20
-184.76
 30
0.0
 11
-2737.21
 21
-590.16
 31
0.0
  0
LINE
  5
1A77
  8
0
  6
CONTINUOUS
 62
     3
 10
-2767.68
 20
-229.76
 30
0.0
 11
-2654.01
 21
-400.0
 31
0.0
  0
LINE
  5
1A78
  8
0
  6
CONTINUOUS
 62
     3
 10
-2737.21
 20
-209.84
 30
0.0
 11
-2632.13
 21
-367.22
 31
0.0
  0
LINE
  5
1A79
  8
0
  6
CONTINUOUS
 62
     3
 10
-2132.78
 20
-636.26
 30
0.0
 11
-2408.56
 21
-181.11
 31
0.0
  0
LINE
  5
1A7A
  8
0
  6
CONTINUOUS
 62
     3
 10
-2177.03
 20
-633.48
 30
0.0
 11
-2449.56
 21
-183.69
 31
0.0
  0
LINE
  5
1A7B
  8
0
  6
CONTINUOUS
 62
     3
 10
-3209.6
 20
-172.0
 30
0.0
 11
-3209.6
 21
-614.44
 31
0.0
  0
LINE
  5
1A7C
  8
0
  6
CONTINUOUS
 62
     3
 10
-4366.4
 20
-265.44
 30
0.0
 11
-4366.4
 21
-440.01
 31
0.0
  0
LINE
  5
1A7D
  8
0
  6
CONTINUOUS
 62
     3
 10
-3816.8
 20
-757.32
 30
0.0
 11
-3527.938607
 21
-590.560742
 31
0.0
  0
ARC
  5
1A7E
  8
0
  6
CONTINUOUS
 62
     3
 10
-4000.0
 20
-440.01
 30
0.0
 40
366.4
 50
180.0
 51
300.0
  0
LINE
  5
1A7F
  8
0
  6
CONTINUOUS
 62
     3
 10
-2642.64
 20
-652.0
 30
0.0
 11
-2926.16
 21
-466.63
 31
0.0
  0
LINE
  5
1A80
  8
0
  6
CONTINUOUS
 62
     3
 10
-3209.6
 20
-614.44
 30
0.0
 11
-3527.938607
 21
-590.560742
 31
0.0
  0
LINE
  5
1A81
  8
0
  6
CONTINUOUS
 62
     3
 10
-2610.24
 20
-400.0
 30
0.0
 11
-2466.51
 21
-615.26
 31
0.0
  0
LINE
  5
1A82
  8
0
  6
CONTINUOUS
 62
     3
 10
-2632.13
 20
-432.77
 30
0.0
 11
-2512.2
 21
-612.39
 31
0.0
  0
LINE
  5
1A83
  8
0
  6
CONTINUOUS
 62
     3
 10
-2642.64
 20
-652.0
 30
0.0
 11
-2642.64
 21
-656.07
 31
0.0
  0
LINE
  5
1A84
  8
0
  6
CONTINUOUS
 62
     3
 10
-2449.57
 20
-616.33
 30
0.0
 11
-2318.49
 21
-400.01
 31
0.0
  0
LINE
  5
1A85
  8
0
  6
CONTINUOUS
 62
     3
 10
-2408.57
 20
-618.91
 30
0.0
 11
-2297.21
 21
-435.13
 31
0.0
  0
LINE
  5
1A86
  8
0
  6
CONTINUOUS
 62
     3
 10
-3209.6
 20
-184.55
 30
0.0
 11
-4366.4
 21
-265.44
 31
0.0
  0
LINE
  5
1A87
  8
0
  6
CONTINUOUS
 62
     3
 10
-3209.6
 20
-172.0
 30
0.0
 11
-3786.43
 21
-82.23
 31
0.0
  0
ARC
  5
1A88
  8
0
  6
CONTINUOUS
 62
     3
 10
-4000.0
 20
-400.0
 30
0.0
 40
310.0
 50
61.9839
 51
152.971
  0
LINE
  5
1A89
  8
0
  6
CONTINUOUS
 62
     3
 10
-3986.88
 20
-238.9
 30
0.0
 11
-3810.47
 21
-89.01
 31
0.0
  0
CIRCLE
  5
1A8A
  8
0
  6
CONTINUOUS
 62
     3
 10
-3800.0
 20
-150.01
 30
0.0
 40
39.9999
  0
ARC
  5
1A8B
  8
0
  6
CONTINUOUS
 62
     3
 10
-3791.04
 20
-111.87
 30
0.0
 40
30.0
 50
81.154
 51
130.353
  0
LINE
  5
1A8C
  8
0
  6
CONTINUOUS
 62
     3
 10
-2926.16
 20
-333.37
 30
0.0
 11
-2642.64
 21
-148.01
 31
0.0
  0
LINE
  5
1A8D
  8
0
  6
CONTINUOUS
 62
     3
 10
-2642.64
 20
-143.95
 30
0.0
 11
-2642.64
 21
-148.01
 31
0.0
  0
POINT
  5
1A8E
  8
ô_
 62
     1
 10
0.0
 20
-800.0
 30
0.0
  0
POINT
  5
1A8F
  8
ô_
 62
     1
 10
0.0
 20
0.0
 30
0.0
  0
LINE
  5
1A90
  8
0
  6
CONTINUOUS
 62
     3
 10
-1627.69
 20
-360.01
 30
0.0
 11
-1507.27
 21
-124.39
 31
0.0
  0
LINE
  5
1A91
  8
0
  6
CONTINUOUS
 62
     3
 10
-1607.25
 20
-400.01
 30
0.0
 11
-1465.03
 21
-121.74
 31
0.0
  0
LINE
  5
1A92
  8
0
  6
CONTINUOUS
 62
     3
 10
-958.41
 20
-354.97
 30
0.0
 11
-837.95
 21
-82.27
 31
0.0
  0
LINE
  5
1A93
  8
0
  6
CONTINUOUS
 62
     3
 10
-938.51
 20
-400.01
 30
0.0
 11
-797.02
 21
-79.7
 31
0.0
  0
LINE
  5
1A94
  8
0
  6
CONTINUOUS
 62
     3
 10
-1798.95
 20
-142.75
 30
0.0
 11
-2074.64
 21
-639.92
 31
0.0
  0
LINE
  5
1A95
  8
0
  6
CONTINUOUS
 62
     3
 10
-1842.08
 20
-145.46
 30
0.0
 11
-2114.86
 21
-637.39
 31
0.0
  0
LINE
  5
1A96
  8
0
  6
CONTINUOUS
 62
     3
 10
-2074.62
 20
-160.1
 30
0.0
 11
-1962.41
 21
-362.47
 31
0.0
  0
LINE
  5
1A97
  8
0
  6
CONTINUOUS
 62
     3
 10
-2114.84
 20
-162.63
 30
0.0
 11
-1983.22
 21
-400.0
 31
0.0
  0
LINE
  5
1A98
  8
0
  6
CONTINUOUS
 62
     3
 10
-1507.26
 20
-675.63
 30
0.0
 11
-1780.21
 21
-141.57
 31
0.0
  0
LINE
  5
1A99
  8
0
  6
CONTINUOUS
 62
     3
 10
-1465.03
 20
-678.28
 30
0.0
 11
-1740.6
 21
-139.08
 31
0.0
  0
LINE
  5
1A9A
  8
0
  6
CONTINUOUS
 62
     3
 10
-1131.05
 20
-100.72
 30
0.0
 11
-1406.51
 21
-681.97
 31
0.0
  0
LINE
  5
1A9B
  8
0
  6
CONTINUOUS
 62
     3
 10
-1172.57
 20
-103.33
 30
0.0
 11
-1445.62
 21
-679.5
 31
0.0
  0
LINE
  5
1A9C
  8
0
  6
CONTINUOUS
 62
     3
 10
-1406.5
 20
-118.05
 30
0.0
 11
-1293.02
 21
-357.5
 31
0.0
  0
LINE
  5
1A9D
  8
0
  6
CONTINUOUS
 62
     3
 10
-1445.61
 20
-120.51
 30
0.0
 11
-1313.17
 21
-400.0
 31
0.0
  0
LINE
  5
1A9E
  8
0
  6
CONTINUOUS
 62
     3
 10
-837.95
 20
-717.75
 30
0.0
 11
-1111.07
 21
-99.46
 31
0.0
  0
LINE
  5
1A9F
  8
0
  6
CONTINUOUS
 62
     3
 10
-797.02
 20
-720.32
 30
0.0
 11
-1072.35
 21
-97.02
 31
0.0
  0
LINE
  5
1AA0
  8
0
  6
CONTINUOUS
 62
     3
 10
-503.4
 20
-61.22
 30
0.0
 11
-776.56
 21
-721.61
 31
0.0
  0
LINE
  5
1AA1
  8
0
  6
CONTINUOUS
 62
     3
 10
-462.96
 20
-58.67
 30
0.0
 11
-738.17
 21
-724.02
 31
0.0
  0
LINE
  5
1AA2
  8
0
  6
CONTINUOUS
 62
     3
 10
-776.55
 20
-78.41
 30
0.0
 11
-643.53
 21
-400.0
 31
0.0
  0
LINE
  5
1AA3
  8
0
  6
CONTINUOUS
 62
     3
 10
-738.16
 20
-75.99
 30
0.0
 11
-623.84
 21
-352.38
 31
0.0
  0
LINE
  5
1AA4
  8
0
  6
CONTINUOUS
 62
     3
 10
-272.72
 20
-400.02
 30
0.0
 11
-168.18
 21
-40.12
 31
0.0
  0
LINE
  5
1AA5
  8
0
  6
CONTINUOUS
 62
     3
 10
-373.52
 20
-53.05
 30
0.0
 11
-169.36
 21
-755.81
 31
0.0
  0
LINE
  5
1AA6
  8
0
  6
CONTINUOUS
 62
     3
 10
-408.48
 20
-55.25
 30
0.0
 11
-205.6
 21
-753.53
 31
0.0
  0
LINE
  5
1AA7
  8
0
  6
CONTINUOUS
 62
     3
 10
-148.96
 20
-38.91
 30
0.0
 11
-148.96
 21
-757.1
 31
0.0
  0
LINE
  5
1AA8
  8
0
  6
CONTINUOUS
 62
     3
 10
-114.8
 20
-36.77
 30
0.0
 11
-114.8
 21
-759.25
 31
0.0
  0
LINE
  5
1AA9
  8
0
  6
CONTINUOUS
 62
     3
 10
-1780.21
 20
-658.45
 30
0.0
 11
-1648.13
 21
-400.01
 31
0.0
  0
LINE
  5
1AAA
  8
0
  6
CONTINUOUS
 62
     3
 10
-1962.41
 20
-437.53
 30
0.0
 11
-1842.06
 21
-654.56
 31
0.0
  0
LINE
  5
1AAB
  8
0
  6
CONTINUOUS
 62
     3
 10
-1941.6
 20
-400.0
 30
0.0
 11
-1798.94
 21
-657.27
 31
0.0
  0
LINE
  5
1AAC
  8
0
  6
CONTINUOUS
 62
     3
 10
-1740.6
 20
-660.94
 30
0.0
 11
-1627.69
 21
-440.0
 31
0.0
  0
LINE
  5
1AAD
  8
0
  6
CONTINUOUS
 62
     3
 10
-1072.36
 20
-702.99
 30
0.0
 11
-958.41
 21
-445.05
 31
0.0
  0
LINE
  5
1AAE
  8
0
  6
CONTINUOUS
 62
     3
 10
-1111.07
 20
-700.56
 30
0.0
 11
-978.31
 21
-400.01
 31
0.0
  0
LINE
  5
1AAF
  8
0
  6
CONTINUOUS
 62
     3
 10
-1293.02
 20
-442.5
 30
0.0
 11
-1172.56
 21
-696.69
 31
0.0
  0
LINE
  5
1AB0
  8
0
  6
CONTINUOUS
 62
     3
 10
-1272.88
 20
-400.0
 30
0.0
 11
-1131.04
 21
-699.3
 31
0.0
  0
LINE
  5
1AB1
  8
0
  6
CONTINUOUS
 62
     3
 10
-108.8
 20
-759.63
 30
0.0
 11
-303.6
 21
-747.37
 31
0.0
  0
LINE
  5
1AB2
  8
0
  6
CONTINUOUS
 62
     3
 10
-604.14
 20
-400.0
 30
0.0
 11
-462.95
 21
-741.34
 31
0.0
  0
LINE
  5
1AB3
  8
0
  6
CONTINUOUS
 62
     3
 10
-623.84
 20
-447.61
 30
0.0
 11
-503.39
 21
-738.8
 31
0.0
  0
LINE
  5
1AB4
  8
0
  6
CONTINUOUS
 62
     3
 10
-303.84
 20
-751.36
 30
0.0
 11
-303.6
 21
-747.37
 31
0.0
  0
LINE
  5
1AB5
  8
0
  6
CONTINUOUS
 62
     3
 10
-408.48
 20
-744.78
 30
0.0
 11
-308.32
 21
-400.02
 31
0.0
  0
LINE
  5
1AB6
  8
0
  6
CONTINUOUS
 62
     3
 10
-373.52
 20
-746.97
 30
0.0
 11
-290.56
 21
-461.24
 31
0.0
  0
LINE
  5
1AB7
  8
ô_
 62
     3
 10
-104.0
 20
-763.93
 30
0.0
 11
-64.0
 21
-758.0
 31
0.0
  0
CIRCLE
  5
1AB8
  8
0
  6
CONTINUOUS
 62
     3
 10
0.0
 20
-800.0
 30
0.0
 40
24.0
  0
ARC
  5
1AB9
  8
0
  6
CONTINUOUS
 62
     3
 10
0.0
 20
-800.0
 30
0.0
 40
50.4001
 50
262.097
 51
97.9029
  0
LINE
  5
1ABA
  8
0
  6
CONTINUOUS
 62
     3
 10
-109.04
 20
-763.62
 30
0.0
 11
-108.72
 21
-759.63
 31
0.0
  0
LINE
  5
1ABB
  8
0
  6
CONTINUOUS
 62
     3
 10
-64.0
 20
-842.0
 30
0.0
 11
-64.0
 21
-758.0
 31
0.0
  0
LINE
  5
1ABC
  8
0
  6
CONTINUOUS
 62
     3
 10
-64.0
 20
-758.0
 30
0.0
 11
-6.88
 21
-750.08
 31
0.0
  0
LINE
  5
1ABD
  8
0
  6
CONTINUOUS
 62
     3
 10
-64.0
 20
-841.99
 30
0.0
 11
-6.88
 21
-849.92
 31
0.0
  0
LINE
  5
1ABE
  8
0
  6
CONTINUOUS
 62
     3
 10
-308.64
 20
27.2
 30
0.0
 11
-105.92
 21
39.96
 31
0.0
  0
LINE
  5
1ABF
  8
0
  6
CONTINUOUS
 62
     3
 10
-290.56
 20
-338.8
 30
0.0
 11
-204.42
 21
-42.4
 31
0.0
  0
LINE
  5
1AC0
  8
0
  6
CONTINUOUS
 62
     3
 10
-308.371656
 20
23.19203
 30
0.0
 11
-308.64
 21
27.21
 31
0.0
  0
LINE
  5
1AC1
  8
ô_
 62
     3
 10
-104.0
 20
-36.09
 30
0.0
 11
-6.929833
 21
-49.921413
 31
0.0
  0
LINE
  5
1AC2
  8
ô_
 62
     3
 10
-64.0
 20
42.0
 30
0.0
 11
-105.92
 21
39.96
 31
0.0
  0
ARC
  5
1AC3
  8
0
  6
CONTINUOUS
 62
     3
 10
0.0
 20
0.0
 30
0.0
 40
50.4001
 50
262.097
 51
97.9029
  0
CIRCLE
  5
1AC4
  8
0
  6
CONTINUOUS
 62
     3
 10
0.0
 20
0.0
 30
0.0
 40
24.0
  0
LINE
  5
1AC5
  8
0
  6
CONTINUOUS
 62
     3
 10
-64.0
 20
42.0
 30
0.0
 11
-6.88
 21
49.92
 31
0.0
  0
ENDBLK
  5
1AC6
  8
0
  0
BLOCK
  8
0
  2
B110132
 70
     0
 10
0.0
 20
0.0
 30
0.0
  3
B110132
  1

  0
POINT
  5
1B53
  8
ô_
 62
     1
 10
-5000.0
 20
-799.99
 30
0.0
  0
POINT
  5
1B54
  8
ô_
 62
     1
 10
-5000.0
 20
0.0
 30
0.0
  0
LINE
  5
1B55
  8
0
  6
CONTINUOUS
 62
     3
 10
-2310.5
 20
-399.99
 30
0.0
 11
-2171.7
 21
-36.0
 31
0.0
  0
LINE
  5
1B56
  8
0
  6
CONTINUOUS
 62
     3
 10
-2171.7
 20
-763.99
 30
0.0
 11
-2449.2
 21
-36.0
 31
0.0
  0
LINE
  5
1B57
  8
0
  6
CONTINUOUS
 62
     3
 10
-308.8
 20
36.0
 30
0.0
 11
-4691.2
 21
36.0
 31
0.0
  0
LINE
  5
1B58
  8
0
  6
CONTINUOUS
 62
     3
 10
-104.0
 20
-36.0
 30
0.0
 11
-4896.0
 21
-36.0
 31
0.0
  0
LINE
  5
1B59
  8
0
  6
CONTINUOUS
 62
     3
 10
-4896.0
 20
-763.99
 30
0.0
 11
-104.0
 21
-763.99
 31
0.0
  0
LINE
  5
1B5A
  8
0
  6
CONTINUOUS
 62
     3
 10
-4691.2
 20
-835.99
 30
0.0
 11
-308.8
 21
-835.99
 31
0.0
  0
LINE
  5
1B5B
  8
0
  6
CONTINUOUS
 62
     3
 10
-2330.0
 20
-348.9
 30
0.0
 11
-2210.7
 21
-36.0
 31
0.0
  0
LINE
  5
1B5C
  8
0
  6
CONTINUOUS
 62
     3
 10
-3010.0
 20
-348.9
 30
0.0
 11
-2890.7
 21
-36.0
 31
0.0
  0
LINE
  5
1B5D
  8
0
  6
CONTINUOUS
 62
     3
 10
-2990.5
 20
-399.99
 30
0.0
 11
-2851.7
 21
-36.0
 31
0.0
  0
LINE
  5
1B5E
  8
0
  6
CONTINUOUS
 62
     3
 10
-3690.0
 20
-348.9
 30
0.0
 11
-3570.7
 21
-36.0
 31
0.0
  0
LINE
  5
1B5F
  8
0
  6
CONTINUOUS
 62
     3
 10
-3670.5
 20
-399.99
 30
0.0
 11
-3531.7
 21
-36.0
 31
0.0
  0
LINE
  5
1B60
  8
0
  6
CONTINUOUS
 62
     3
 10
-2210.7
 20
-763.99
 30
0.0
 11
-2488.2
 21
-36.0
 31
0.0
  0
LINE
  5
1B61
  8
0
  6
CONTINUOUS
 62
     3
 10
-2670.0
 20
-348.9
 30
0.0
 11
-2789.2
 21
-36.0
 31
0.0
  0
LINE
  5
1B62
  8
0
  6
CONTINUOUS
 62
     3
 10
-2689.4
 20
-399.99
 30
0.0
 11
-2828.2
 21
-36.0
 31
0.0
  0
LINE
  5
1B63
  8
0
  6
CONTINUOUS
 62
     3
 10
-2851.7
 20
-763.99
 30
0.0
 11
-3129.2
 21
-36.0
 31
0.0
  0
LINE
  5
1B64
  8
0
  6
CONTINUOUS
 62
     3
 10
-2890.7
 20
-763.99
 30
0.0
 11
-3168.2
 21
-36.0
 31
0.0
  0
LINE
  5
1B65
  8
0
  6
CONTINUOUS
 62
     3
 10
-3350.0
 20
-348.9
 30
0.0
 11
-3469.2
 21
-36.0
 31
0.0
  0
LINE
  5
1B66
  8
0
  6
CONTINUOUS
 62
     3
 10
-3369.4
 20
-399.99
 30
0.0
 11
-3508.2
 21
-36.0
 31
0.0
  0
LINE
  5
1B67
  8
0
  6
CONTINUOUS
 62
     3
 10
-3531.7
 20
-763.99
 30
0.0
 11
-3809.2
 21
-36.0
 31
0.0
  0
LINE
  5
1B68
  8
0
  6
CONTINUOUS
 62
     3
 10
-3570.7
 20
-763.99
 30
0.0
 11
-3848.2
 21
-36.0
 31
0.0
  0
LINE
  5
1B69
  8
0
  6
CONTINUOUS
 62
     3
 10
-4030.0
 20
-348.9
 30
0.0
 11
-4149.2
 21
-36.0
 31
0.0
  0
LINE
  5
1B6A
  8
0
  6
CONTINUOUS
 62
     3
 10
-4049.4
 20
-399.99
 30
0.0
 11
-4188.2
 21
-36.0
 31
0.0
  0
LINE
  5
1B6B
  8
0
  6
CONTINUOUS
 62
     3
 10
-2828.2
 20
-763.99
 30
0.0
 11
-2550.7
 21
-36.0
 31
0.0
  0
LINE
  5
1B6C
  8
0
  6
CONTINUOUS
 62
     3
 10
-2789.2
 20
-763.99
 30
0.0
 11
-2511.7
 21
-36.0
 31
0.0
  0
LINE
  5
1B6D
  8
0
  6
CONTINUOUS
 62
     3
 10
-3508.2
 20
-763.99
 30
0.0
 11
-3230.7
 21
-36.0
 31
0.0
  0
LINE
  5
1B6E
  8
0
  6
CONTINUOUS
 62
     3
 10
-3469.2
 20
-763.99
 30
0.0
 11
-3191.7
 21
-36.0
 31
0.0
  0
LINE
  5
1B6F
  8
0
  6
CONTINUOUS
 62
     3
 10
-4188.2
 20
-763.99
 30
0.0
 11
-3910.7
 21
-36.0
 31
0.0
  0
LINE
  5
1B70
  8
0
  6
CONTINUOUS
 62
     3
 10
-4149.2
 20
-763.99
 30
0.0
 11
-3871.7
 21
-36.0
 31
0.0
  0
LINE
  5
1B71
  8
0
  6
CONTINUOUS
 62
     3
 10
-4489.2
 20
-36.0
 30
0.0
 11
-4211.7
 21
-763.99
 31
0.0
  0
LINE
  5
1B72
  8
0
  6
CONTINUOUS
 62
     3
 10
-4528.2
 20
-36.0
 30
0.0
 11
-4250.7
 21
-763.99
 31
0.0
  0
LINE
  5
1B73
  8
0
  6
CONTINUOUS
 62
     3
 10
-4211.7
 20
-36.0
 30
0.0
 11
-4350.5
 21
-400.0
 31
0.0
  0
LINE
  5
1B74
  8
0
  6
CONTINUOUS
 62
     3
 10
-4250.7
 20
-36.0
 30
0.0
 11
-4370.0
 21
-348.91
 31
0.0
  0
LINE
  5
1B75
  8
0
  6
CONTINUOUS
 62
     3
 10
-4678.7
 20
-400.0
 30
0.0
 11
-4810.9
 21
-36.0
 31
0.0
  0
LINE
  5
1B76
  8
0
  6
CONTINUOUS
 62
     3
 10
-4659.4
 20
-346.73
 30
0.0
 11
-4772.2
 21
-36.0
 31
0.0
  0
LINE
  5
1B77
  8
0
  6
CONTINUOUS
 62
     3
 10
-4877.6
 20
-36.0
 30
0.0
 11
-4877.6
 21
-763.99
 31
0.0
  0
LINE
  5
1B78
  8
0
  6
CONTINUOUS
 62
     3
 10
-4841.2
 20
-36.0
 30
0.0
 11
-4841.2
 21
-763.99
 31
0.0
  0
LINE
  5
1B79
  8
0
  6
CONTINUOUS
 62
     3
 10
-4810.9
 20
-763.99
 30
0.0
 11
-4546.6
 21
-36.0
 31
0.0
  0
LINE
  5
1B7A
  8
0
  6
CONTINUOUS
 62
     3
 10
-4772.2
 20
-763.99
 30
0.0
 11
-4507.8
 21
-36.0
 31
0.0
  0
LINE
  5
1B7B
  8
0
  6
CONTINUOUS
 62
     3
 10
-4370.0
 20
-451.1
 30
0.0
 11
-4489.2
 21
-763.99
 31
0.0
  0
LINE
  5
1B7C
  8
0
  6
CONTINUOUS
 62
     3
 10
-4389.5
 20
-400.0
 30
0.0
 11
-4528.2
 21
-763.99
 31
0.0
  0
ARC
  5
1B7D
  8
0
  6
CONTINUOUS
 62
     3
 10
-5000.0
 20
-799.99
 30
0.0
 40
50.4001
 50
82.097
 51
277.9029
  0
LINE
  5
1B7E
  8
0
  6
CONTINUOUS
 62
     3
 10
-4936.0
 20
-757.99
 30
0.0
 11
-4936.0
 21
-841.99
 31
0.0
  0
LINE
  5
1B7F
  8
0
  6
CONTINUOUS
 62
     3
 10
-4896.0
 20
-757.99
 30
0.0
 11
-4896.0
 21
-841.99
 31
0.0
  0
LINE
  5
1B80
  8
0
  6
CONTINUOUS
 62
     3
 10
-4896.0
 20
-839.99
 30
0.0
 11
-4691.2
 21
-839.99
 31
0.0
  0
LINE
  5
1B81
  8
0
  6
CONTINUOUS
 62
     3
 10
-4936.0
 20
-841.99
 30
0.0
 11
-4896.0
 21
-841.99
 31
0.0
  0
LINE
  5
1B82
  8
0
  6
CONTINUOUS
 62
     3
 10
-4936.0
 20
-841.99
 30
0.0
 11
-4993.1
 21
-849.91
 31
0.0
  0
LINE
  5
1B83
  8
0
  6
CONTINUOUS
 62
     3
 10
-4691.2
 20
-835.99
 30
0.0
 11
-4691.2
 21
-839.99
 31
0.0
  0
CIRCLE
  5
1B84
  8
0
  6
CONTINUOUS
 62
     3
 10
-5000.0
 20
-799.99
 30
0.0
 40
24.0
  0
LINE
  5
1B85
  8
0
  6
CONTINUOUS
 62
     3
 10
-4936.0
 20
-757.99
 30
0.0
 11
-4896.0
 21
-757.99
 31
0.0
  0
LINE
  5
1B86
  8
0
  6
CONTINUOUS
 62
     3
 10
-4936.0
 20
-757.99
 30
0.0
 11
-4993.1
 21
-750.07
 31
0.0
  0
LINE
  5
1B87
  8
0
  6
CONTINUOUS
 62
     3
 10
-4546.5
 20
-763.99
 30
0.0
 11
-4659.4
 21
-453.28
 31
0.0
  0
LINE
  5
1B88
  8
0
  6
CONTINUOUS
 62
     3
 10
-4507.8
 20
-763.99
 30
0.0
 11
-4640.1
 21
-400.01
 31
0.0
  0
LINE
  5
1B89
  8
0
  6
CONTINUOUS
 62
     3
 10
-3809.2
 20
-763.99
 30
0.0
 11
-3690.0
 21
-451.09
 31
0.0
  0
LINE
  5
1B8A
  8
0
  6
CONTINUOUS
 62
     3
 10
-3848.2
 20
-763.99
 30
0.0
 11
-3709.4
 21
-399.99
 31
0.0
  0
LINE
  5
1B8B
  8
0
  6
CONTINUOUS
 62
     3
 10
-3871.7
 20
-763.99
 30
0.0
 11
-4010.5
 21
-399.99
 31
0.0
  0
LINE
  5
1B8C
  8
0
  6
CONTINUOUS
 62
     3
 10
-3910.7
 20
-763.99
 30
0.0
 11
-4030.0
 21
-451.09
 31
0.0
  0
LINE
  5
1B8D
  8
0
  6
CONTINUOUS
 62
     3
 10
-3230.7
 20
-763.99
 30
0.0
 11
-3350.0
 21
-451.09
 31
0.0
  0
LINE
  5
1B8E
  8
0
  6
CONTINUOUS
 62
     3
 10
-3191.7
 20
-763.99
 30
0.0
 11
-3330.5
 21
-399.99
 31
0.0
  0
LINE
  5
1B8F
  8
0
  6
CONTINUOUS
 62
     3
 10
-3168.2
 20
-763.99
 30
0.0
 11
-3029.4
 21
-399.99
 31
0.0
  0
LINE
  5
1B90
  8
0
  6
CONTINUOUS
 62
     3
 10
-3129.2
 20
-763.99
 30
0.0
 11
-3010.0
 21
-451.09
 31
0.0
  0
LINE
  5
1B91
  8
0
  6
CONTINUOUS
 62
     3
 10
-2511.7
 20
-763.99
 30
0.0
 11
-2650.5
 21
-399.99
 31
0.0
  0
LINE
  5
1B92
  8
0
  6
CONTINUOUS
 62
     3
 10
-2550.7
 20
-763.99
 30
0.0
 11
-2670.0
 21
-451.09
 31
0.0
  0
LINE
  5
1B93
  8
0
  6
CONTINUOUS
 62
     3
 10
-2449.2
 20
-763.99
 30
0.0
 11
-2330.0
 21
-451.09
 31
0.0
  0
LINE
  5
1B94
  8
0
  6
CONTINUOUS
 62
     3
 10
-2488.2
 20
-763.99
 30
0.0
 11
-2349.4
 21
-399.99
 31
0.0
  0
LINE
  5
1B95
  8
0
  6
CONTINUOUS
 62
     3
 10
-4691.2
 20
40.0
 30
0.0
 11
-4896.0
 21
40.0
 31
0.0
  0
ARC
  5
1B96
  8
0
  6
CONTINUOUS
 62
     3
 10
-5000.0
 20
0.01
 30
0.0
 40
50.4001
 50
82.097
 51
277.9029
  0
CIRCLE
  5
1B97
  8
0
  6
CONTINUOUS
 62
     3
 10
-5000.0
 20
0.0
 30
0.0
 40
24.0
  0
LINE
  5
1B98
  8
0
  6
CONTINUOUS
 62
     3
 10
-4936.0
 20
42.0
 30
0.0
 11
-4896.0
 21
42.0
 31
0.0
  0
LINE
  5
1B99
  8
0
  6
CONTINUOUS
 62
     3
 10
-4936.0
 20
-42.0
 30
0.0
 11
-4896.0
 21
-42.0
 31
0.0
  0
LINE
  5
1B9A
  8
0
  6
CONTINUOUS
 62
     3
 10
-4936.0
 20
-42.0
 30
0.0
 11
-4993.1
 21
-49.92
 31
0.0
  0
LINE
  5
1B9B
  8
0
  6
CONTINUOUS
 62
     3
 10
-4936.0
 20
42.0
 30
0.0
 11
-4993.1
 21
49.92
 31
0.0
  0
LINE
  5
1B9C
  8
0
  6
CONTINUOUS
 62
     3
 10
-4936.0
 20
42.0
 30
0.0
 11
-4936.0
 21
-42.0
 31
0.0
  0
LINE
  5
1B9D
  8
0
  6
CONTINUOUS
 62
     3
 10
-4896.0
 20
42.0
 30
0.0
 11
-4896.0
 21
-42.0
 31
0.0
  0
LINE
  5
1B9E
  8
0
  6
CONTINUOUS
 62
     3
 10
-4691.2
 20
40.0
 30
0.0
 11
-4691.2
 21
36.0
 31
0.0
  0
POINT
  5
1B9F
  8
ô_
 62
     1
 10
0.0
 20
0.0
 30
0.0
  0
LINE
  5
1BA0
  8
0
  6
CONTINUOUS
 62
     3
 10
-970.0
 20
-348.9
 30
0.0
 11
-850.7
 21
-36.0
 31
0.0
  0
LINE
  5
1BA1
  8
0
  6
CONTINUOUS
 62
     3
 10
-950.5
 20
-399.99
 30
0.0
 11
-811.7
 21
-36.0
 31
0.0
  0
LINE
  5
1BA2
  8
0
  6
CONTINUOUS
 62
     3
 10
-1650.0
 20
-348.9
 30
0.0
 11
-1530.7
 21
-36.0
 31
0.0
  0
LINE
  5
1BA3
  8
0
  6
CONTINUOUS
 62
     3
 10
-1630.5
 20
-399.99
 30
0.0
 11
-1491.7
 21
-36.0
 31
0.0
  0
LINE
  5
1BA4
  8
0
  6
CONTINUOUS
 62
     3
 10
-629.9
 20
-348.9
 30
0.0
 11
-749.2
 21
-36.0
 31
0.0
  0
LINE
  5
1BA5
  8
0
  6
CONTINUOUS
 62
     3
 10
-649.4
 20
-399.99
 30
0.0
 11
-788.2
 21
-36.0
 31
0.0
  0
LINE
  5
1BA6
  8
0
  6
CONTINUOUS
 62
     3
 10
-811.7
 20
-763.99
 30
0.0
 11
-1089.2
 21
-36.0
 31
0.0
  0
LINE
  5
1BA7
  8
0
  6
CONTINUOUS
 62
     3
 10
-850.7
 20
-763.99
 30
0.0
 11
-1128.2
 21
-36.0
 31
0.0
  0
LINE
  5
1BA8
  8
0
  6
CONTINUOUS
 62
     3
 10
-1310.0
 20
-348.9
 30
0.0
 11
-1429.2
 21
-36.0
 31
0.0
  0
LINE
  5
1BA9
  8
0
  6
CONTINUOUS
 62
     3
 10
-1329.4
 20
-399.99
 30
0.0
 11
-1468.2
 21
-36.0
 31
0.0
  0
LINE
  5
1BAA
  8
0
  6
CONTINUOUS
 62
     3
 10
-1491.7
 20
-763.99
 30
0.0
 11
-1769.2
 21
-36.0
 31
0.0
  0
LINE
  5
1BAB
  8
0
  6
CONTINUOUS
 62
     3
 10
-1530.7
 20
-763.99
 30
0.0
 11
-1808.2
 21
-36.0
 31
0.0
  0
LINE
  5
1BAC
  8
0
  6
CONTINUOUS
 62
     3
 10
-1990.0
 20
-348.9
 30
0.0
 11
-2109.2
 21
-36.0
 31
0.0
  0
LINE
  5
1BAD
  8
0
  6
CONTINUOUS
 62
     3
 10
-2009.4
 20
-399.99
 30
0.0
 11
-2148.2
 21
-36.0
 31
0.0
  0
LINE
  5
1BAE
  8
0
  6
CONTINUOUS
 62
     3
 10
-749.2
 20
-763.99
 30
0.0
 11
-471.7
 21
-36.0
 31
0.0
  0
LINE
  5
1BAF
  8
0
  6
CONTINUOUS
 62
     3
 10
-788.2
 20
-763.99
 30
0.0
 11
-510.7
 21
-36.0
 31
0.0
  0
LINE
  5
1BB0
  8
0
  6
CONTINUOUS
 62
     3
 10
-1468.2
 20
-763.99
 30
0.0
 11
-1190.7
 21
-36.0
 31
0.0
  0
LINE
  5
1BB1
  8
0
  6
CONTINUOUS
 62
     3
 10
-1429.2
 20
-763.99
 30
0.0
 11
-1151.7
 21
-36.0
 31
0.0
  0
LINE
  5
1BB2
  8
0
  6
CONTINUOUS
 62
     3
 10
-2109.2
 20
-763.99
 30
0.0
 11
-1831.7
 21
-36.0
 31
0.0
  0
LINE
  5
1BB3
  8
0
  6
CONTINUOUS
 62
     3
 10
-2148.2
 20
-763.99
 30
0.0
 11
-1870.7
 21
-36.0
 31
0.0
  0
LINE
  5
1BB4
  8
0
  6
CONTINUOUS
 62
     3
 10
-335.9
 20
-345.13
 30
0.0
 11
-227.2
 21
-36.0
 31
0.0
  0
LINE
  5
1BB5
  8
0
  6
CONTINUOUS
 62
     3
 10
-189.0
 20
-36.0
 30
0.0
 11
-321.1
 21
-399.99
 31
0.0
  0
LINE
  5
1BB6
  8
0
  6
CONTINUOUS
 62
     3
 10
-227.2
 20
-763.99
 30
0.0
 11
-483.0
 21
-36.0
 31
0.0
  0
LINE
  5
1BB7
  8
0
  6
CONTINUOUS
 62
     3
 10
-188.7
 20
-763.99
 30
0.0
 11
-444.5
 21
-36.0
 31
0.0
  0
LINE
  5
1BB8
  8
0
  6
CONTINUOUS
 62
     3
 10
-158.7
 20
-763.99
 30
0.0
 11
-158.7
 21
-36.0
 31
0.0
  0
LINE
  5
1BB9
  8
0
  6
CONTINUOUS
 62
     3
 10
-122.3
 20
-763.99
 30
0.0
 11
-122.3
 21
-36.0
 31
0.0
  0
LINE
  5
1BBA
  8
0
  6
CONTINUOUS
 62
     3
 10
-1808.2
 20
-763.99
 30
0.0
 11
-1669.4
 21
-399.99
 31
0.0
  0
LINE
  5
1BBB
  8
0
  6
CONTINUOUS
 62
     3
 10
-1831.7
 20
-763.99
 30
0.0
 11
-1970.5
 21
-399.99
 31
0.0
  0
LINE
  5
1BBC
  8
0
  6
CONTINUOUS
 62
     3
 10
-1870.7
 20
-763.99
 30
0.0
 11
-1990.0
 21
-451.09
 31
0.0
  0
LINE
  5
1BBD
  8
0
  6
CONTINUOUS
 62
     3
 10
-1769.2
 20
-763.99
 30
0.0
 11
-1650.0
 21
-451.09
 31
0.0
  0
LINE
  5
1BBE
  8
0
  6
CONTINUOUS
 62
     3
 10
-1128.2
 20
-763.99
 30
0.0
 11
-989.4
 21
-399.99
 31
0.0
  0
LINE
  5
1BBF
  8
0
  6
CONTINUOUS
 62
     3
 10
-1089.2
 20
-763.99
 30
0.0
 11
-970.0
 21
-451.09
 31
0.0
  0
LINE
  5
1BC0
  8
0
  6
CONTINUOUS
 62
     3
 10
-1190.7
 20
-763.99
 30
0.0
 11
-1310.0
 21
-451.09
 31
0.0
  0
LINE
  5
1BC1
  8
0
  6
CONTINUOUS
 62
     3
 10
-1151.7
 20
-763.99
 30
0.0
 11
-1290.5
 21
-399.99
 31
0.0
  0
POINT
  5
1BC2
  8
ô_
 62
     1
 10
0.0
 20
-800.0
 30
0.0
  0
ARC
  5
1BC3
  8
0
  6
CONTINUOUS
 62
     3
 10
0.0
 20
-800.0
 30
0.0
 40
50.4001
 50
262.097
 51
97.9029
  0
LINE
  5
1BC4
  8
0
  6
CONTINUOUS
 62
     3
 10
-104.0
 20
-841.99
 30
0.0
 11
-104.0
 21
-757.99
 31
0.0
  0
LINE
  5
1BC5
  8
0
  6
CONTINUOUS
 62
     3
 10
-64.0
 20
-841.99
 30
0.0
 11
-64.0
 21
-757.99
 31
0.0
  0
LINE
  5
1BC6
  8
0
  6
CONTINUOUS
 62
     3
 10
-64.0
 20
-841.99
 30
0.0
 11
-6.9
 21
-849.91
 31
0.0
  0
LINE
  5
1BC7
  8
0
  6
CONTINUOUS
 62
     3
 10
-104.0
 20
-841.99
 30
0.0
 11
-64.0
 21
-841.99
 31
0.0
  0
LINE
  5
1BC8
  8
0
  6
CONTINUOUS
 62
     3
 10
-308.8
 20
-839.99
 30
0.0
 11
-308.8
 21
-835.99
 31
0.0
  0
LINE
  5
1BC9
  8
0
  6
CONTINUOUS
 62
     3
 10
-308.8
 20
-839.99
 30
0.0
 11
-104.0
 21
-839.99
 31
0.0
  0
LINE
  5
1BCA
  8
0
  6
CONTINUOUS
 62
     3
 10
-510.7
 20
-763.99
 30
0.0
 11
-629.9
 21
-451.09
 31
0.0
  0
LINE
  5
1BCB
  8
0
  6
CONTINUOUS
 62
     3
 10
-471.7
 20
-763.99
 30
0.0
 11
-610.5
 21
-399.99
 31
0.0
  0
LINE
  5
1BCC
  8
0
  6
CONTINUOUS
 62
     3
 10
-444.5
 20
-763.99
 30
0.0
 11
-335.9
 21
-454.86
 31
0.0
  0
LINE
  5
1BCD
  8
0
  6
CONTINUOUS
 62
     3
 10
-483.0
 20
-763.99
 30
0.0
 11
-355.1
 21
-400.0
 31
0.0
  0
CIRCLE
  5
1BCE
  8
0
  6
CONTINUOUS
 62
     3
 10
0.0
 20
-800.0
 30
0.0
 40
24.0
  0
LINE
  5
1BCF
  8
0
  6
CONTINUOUS
 62
     3
 10
-64.0
 20
-758.0
 30
0.0
 11
-6.9
 21
-750.08
 31
0.0
  0
LINE
  5
1BD0
  8
0
  6
CONTINUOUS
 62
     3
 10
-104.0
 20
-757.99
 30
0.0
 11
-64.0
 21
-757.99
 31
0.0
  0
CIRCLE
  5
1BD1
  8
0
  6
CONTINUOUS
 62
     3
 10
0.0
 20
0.0
 30
0.0
 40
24.0
  0
ARC
  5
1BD2
  8
0
  6
CONTINUOUS
 62
     3
 10
0.0
 20
0.0
 30
0.0
 40
50.4001
 50
262.097
 51
97.9029
  0
LINE
  5
1BD3
  8
0
  6
CONTINUOUS
 62
     3
 10
-64.0
 20
-42.0
 30
0.0
 11
-6.9
 21
-49.92
 31
0.0
  0
LINE
  5
1BD4
  8
0
  6
CONTINUOUS
 62
     3
 10
-64.0
 20
42.01
 30
0.0
 11
-6.9
 21
49.93
 31
0.0
  0
LINE
  5
1BD5
  8
0
  6
CONTINUOUS
 62
     3
 10
-104.0
 20
-42.0
 30
0.0
 11
-104.0
 21
42.0
 31
0.0
  0
LINE
  5
1BD6
  8
0
  6
CONTINUOUS
 62
     3
 10
-64.0
 20
-42.0
 30
0.0
 11
-64.0
 21
42.0
 31
0.0
  0
LINE
  5
1BD7
  8
0
  6
CONTINUOUS
 62
     3
 10
-104.0
 20
-42.0
 30
0.0
 11
-64.0
 21
-42.0
 31
0.0
  0
LINE
  5
1BD8
  8
0
  6
CONTINUOUS
 62
     3
 10
-104.0
 20
42.0
 30
0.0
 11
-64.0
 21
42.0
 31
0.0
  0
LINE
  5
1BD9
  8
0
  6
CONTINUOUS
 62
     3
 10
-308.8
 20
36.0
 30
0.0
 11
-308.8
 21
40.0
 31
0.0
  0
LINE
  5
1BDA
  8
0
  6
CONTINUOUS
 62
     3
 10
-104.0
 20
40.0
 30
0.0
 11
-308.8
 21
40.0
 31
0.0
  0
ENDBLK
  5
1BDB
  8
0
  0
BLOCK
  8
0
  2
B110133
 70
     0
 10
0.0
 20
0.0
 30
0.0
  3
B110133
  1

  0
LINE
  5
1C64
  8
0
  6
CONTINUOUS
 62
     3
 10
1794.0
 20
-179.9
 30
0.0
 11
2038.7
 21
-599.28
 31
0.0
  0
LINE
  5
1C65
  8
0
  6
CONTINUOUS
 62
     3
 10
2038.7
 20
-200.72
 30
0.0
 11
1922.4
 21
-400.0
 31
0.0
  0
LINE
  5
1C66
  8
0
  6
CONTINUOUS
 62
     3
 10
308.289732
 20
20.412322
 30
0.0
 11
3865.0
 21
-283.9
 31
0.0
  0
LINE
  5
1C67
  8
0
  6
CONTINUOUS
 62
     3
 10
104.0
 20
-36.11
 30
0.0
 11
2665.0
 21
-254.01
 31
0.0
  0
LINE
  5
1C68
  8
0
  6
CONTINUOUS
 62
     3
 10
3865.0
 20
-516.1
 30
0.0
 11
308.2
 21
-820.42
 31
0.0
  0
LINE
  5
1C69
  8
0
  6
CONTINUOUS
 62
     3
 10
2665.0
 20
-545.99
 30
0.0
 11
104.0
 21
-763.89
 31
0.0
  0
POINT
  5
1C6A
  8
ô_
 62
     1
 10
0.0
 20
0.0
 30
0.0
  0
LINE
  5
1C6B
  8
0
  6
CONTINUOUS
 62
     3
 10
1582.0
 20
-370.8
 30
0.0
 11
1466.9
 21
-152.07
 31
0.0
  0
LINE
  5
1C6C
  8
0
  6
CONTINUOUS
 62
     3
 10
1566.6
 20
-400.0
 30
0.0
 11
1434.7
 21
-149.33
 31
0.0
  0
LINE
  5
1C6D
  8
0
  6
CONTINUOUS
 62
     3
 10
933.0
 20
-366.21
 30
0.0
 11
814.4
 21
-96.56
 31
0.0
  0
LINE
  5
1C6E
  8
0
  6
CONTINUOUS
 62
     3
 10
918.2
 20
-400.0
 30
0.0
 11
783.6
 21
-93.93
 31
0.0
  0
LINE
  5
1C6F
  8
0
  6
CONTINUOUS
 62
     3
 10
1140.4
 20
-124.29
 30
0.0
 11
1394.3
 21
-654.11
 31
0.0
  0
LINE
  5
1C70
  8
0
  6
CONTINUOUS
 62
     3
 10
1109.0
 20
-121.62
 30
0.0
 11
1365.3
 21
-656.57
 31
0.0
  0
LINE
  5
1C71
  8
0
  6
CONTINUOUS
 62
     3
 10
1365.3
 20
-143.43
 30
0.0
 11
1257.5
 21
-368.53
 31
0.0
  0
LINE
  5
1C72
  8
0
  6
CONTINUOUS
 62
     3
 10
1394.3
 20
-145.9
 30
0.0
 11
1272.5
 21
-400.0
 31
0.0
  0
LINE
  5
1C73
  8
0
  6
CONTINUOUS
 62
     3
 10
814.4
 20
-703.45
 30
0.0
 11
1071.7
 21
-118.45
 31
0.0
  0
LINE
  5
1C74
  8
0
  6
CONTINUOUS
 62
     3
 10
783.5
 20
-706.07
 30
0.0
 11
1043.0
 21
-116.01
 31
0.0
  0
LINE
  5
1C75
  8
0
  6
CONTINUOUS
 62
     3
 10
458.3
 20
-66.26
 30
0.0
 11
720.5
 21
-711.44
 31
0.0
  0
LINE
  5
1C76
  8
0
  6
CONTINUOUS
 62
     3
 10
488.8
 20
-68.85
 30
0.0
 11
748.9
 21
-709.02
 31
0.0
  0
LINE
  5
1C77
  8
0
  6
CONTINUOUS
 62
     3
 10
748.9
 20
-90.98
 30
0.0
 11
623.3
 21
-400.0
 31
0.0
  0
LINE
  5
1C78
  8
0
  6
CONTINUOUS
 62
     3
 10
720.5
 20
-88.57
 30
0.0
 11
608.6
 21
-363.87
 31
0.0
  0
LINE
  5
1C79
  8
0
  6
CONTINUOUS
 62
     3
 10
298.7
 20
-342.57
 30
0.0
 11
205.969668
 21
-44.785982
 31
0.0
  0
LINE
  5
1C7A
  8
0
  6
CONTINUOUS
 62
     3
 10
280.8
 20
-399.99
 30
0.0
 11
169.172945
 21
-41.655172
 31
0.0
  0
LINE
  5
1C7B
  8
0
  6
CONTINUOUS
 62
     3
 10
422.3
 20
-60.56
 30
0.0
 11
205.7
 21
-756.09
 31
0.0
  0
LINE
  5
1C7C
  8
0
  6
CONTINUOUS
 62
     3
 10
387.4
 20
-57.87
 30
0.0
 11
169.172959
 21
-758.344827
 31
0.0
  0
LINE
  5
1C7D
  8
0
  6
CONTINUOUS
 62
     3
 10
149.1
 20
-39.947286
 30
0.0
 11
149.1
 21
-760.052714
 31
0.0
  0
LINE
  5
1C7E
  8
0
  6
CONTINUOUS
 62
     3
 10
114.9
 20
-36.95
 30
0.0
 11
114.9
 21
-763.05
 31
0.0
  0
LINE
  5
1C7F
  8
0
  6
CONTINUOUS
 62
     3
 10
594.0
 20
-400.0
 30
0.0
 11
458.3
 21
-733.74
 31
0.0
  0
LINE
  5
1C80
  8
0
  6
CONTINUOUS
 62
     3
 10
608.6
 20
-436.13
 30
0.0
 11
488.7
 21
-731.16
 31
0.0
  0
POINT
  5
1C81
  8
ô_
 62
     1
 10
0.0
 20
-800.0
 30
0.0
  0
LINE
  5
1C82
  8
0
  6
CONTINUOUS
 62
     3
 10
422.4
 20
-739.45
 30
0.0
 11
316.6
 21
-399.99
 31
0.0
  0
LINE
  5
1C83
  8
0
  6
CONTINUOUS
 62
     3
 10
387.4
 20
-742.13
 30
0.0
 11
298.7
 21
-457.42
 31
0.0
  0
LINE
  5
1C84
  8
0
  6
CONTINUOUS
 62
     3
 10
308.6
 20
-824.41
 30
0.0
 11
104.0
 21
-840.108288
 31
0.0
  0
ARC
  5
1C85
  8
0
  6
CONTINUOUS
 62
     3
 10
0.0
 20
-800.0
 30
0.0
 40
50.3999
 50
82.098
 51
277.902
  0
CIRCLE
  5
1C86
  8
0
  6
CONTINUOUS
 62
     3
 10
0.0
 20
-800.0
 30
0.0
 40
24.0
  0
LINE
  5
1C87
  8
0
  6
CONTINUOUS
 62
     3
 10
64.0
 20
-758.0
 30
0.0
 11
6.9
 21
-750.08
 31
0.0
  0
LINE
  5
1C88
  8
0
  6
CONTINUOUS
 62
     3
 10
64.0
 20
-842.0
 30
0.0
 11
6.9
 21
-849.92
 31
0.0
  0
LINE
  5
1C89
  8
0
  6
CONTINUOUS
 62
     3
 10
64.0
 20
-758.0
 30
0.0
 11
104.0
 21
-758.0
 31
0.0
  0
LINE
  5
1C8A
  8
0
  6
CONTINUOUS
 62
     3
 10
64.0
 20
-842.0
 30
0.0
 11
104.0
 21
-842.0
 31
0.0
  0
LINE
  5
1C8B
  8
0
  6
CONTINUOUS
 62
     3
 10
104.0
 20
-758.0
 30
0.0
 11
104.0
 21
-842.0
 31
0.0
  0
LINE
  5
1C8C
  8
0
  6
CONTINUOUS
 62
     3
 10
64.0
 20
-758.0
 30
0.0
 11
64.0
 21
-842.0
 31
0.0
  0
LINE
  5
1C8D
  8
0
  6
CONTINUOUS
 62
     3
 10
308.2
 20
-820.22
 30
0.0
 11
308.6
 21
-824.41
 31
0.0
  0
LINE
  5
1C8E
  8
0
  6
CONTINUOUS
 62
     3
 10
442.3
 20
-737.93
 30
0.0
 11
442.3
 21
-737.93
 31
0.0
  0
LINE
  5
1C8F
  8
0
  6
CONTINUOUS
 62
     3
 10
1242.4
 20
-400.0
 30
0.0
 11
1109.0
 21
-678.38
 31
0.0
  0
LINE
  5
1C90
  8
0
  6
CONTINUOUS
 62
     3
 10
1257.5
 20
-431.47
 30
0.0
 11
1140.4
 21
-675.71
 31
0.0
  0
LINE
  5
1C91
  8
0
  6
CONTINUOUS
 62
     3
 10
1071.7
 20
-681.56
 30
0.0
 11
947.9
 21
-400.0
 31
0.0
  0
LINE
  5
1C92
  8
0
  6
CONTINUOUS
 62
     3
 10
1043.1
 20
-683.99
 30
0.0
 11
933.0
 21
-433.78
 31
0.0
  0
LINE
  5
1C93
  8
0
  6
CONTINUOUS
 62
     3
 10
1716.7
 20
-626.68
 30
0.0
 11
1597.4
 21
-400.0
 31
0.0
  0
LINE
  5
1C94
  8
0
  6
CONTINUOUS
 62
     3
 10
1687.3
 20
-629.18
 30
0.0
 11
1582.0
 21
-429.2
 31
0.0
  0
LINE
  5
1C95
  8
0
  6
CONTINUOUS
 62
     3
 10
1434.7
 20
-650.67
 30
0.0
 11
1687.2
 21
-170.82
 31
0.0
  0
LINE
  5
1C96
  8
0
  6
CONTINUOUS
 62
     3
 10
1466.9
 20
-647.93
 30
0.0
 11
1716.7
 21
-173.32
 31
0.0
  0
LINE
  5
1C97
  8
0
  6
CONTINUOUS
 62
     3
 10
1890.9
 20
-400.0
 30
0.0
 11
1760.9
 21
-622.92
 31
0.0
  0
LINE
  5
1C98
  8
0
  6
CONTINUOUS
 62
     3
 10
1906.7
 20
-426.98
 30
0.0
 11
1794.0
 21
-620.1
 31
0.0
  0
LINE
  5
1C99
  8
0
  6
CONTINUOUS
 62
     3
 10
1760.9
 20
-177.08
 30
0.0
 11
2008.7
 21
-601.83
 31
0.0
  0
LINE
  5
1C9A
  8
0
  6
CONTINUOUS
 62
     3
 10
2008.7
 20
-198.17
 30
0.0
 11
1906.7
 21
-373.01
 31
0.0
  0
LINE
  5
1C9B
  8
0
  6
CONTINUOUS
 62
     3
 10
104.0
 20
40.111383
 30
0.0
 11
308.6
 21
24.41
 31
0.0
  0
CIRCLE
  5
1C9C
  8
0
  6
CONTINUOUS
 62
     3
 10
0.0
 20
0.0
 30
0.0
 40
24.0
  0
ARC
  5
1C9D
  8
0
  6
CONTINUOUS
 62
     3
 10
0.0
 20
-0.01
 30
0.0
 40
50.3999
 50
82.098
 51
277.902
  0
LINE
  5
1C9E
  8
0
  6
CONTINUOUS
 62
     3
 10
64.0
 20
42.0
 30
0.0
 11
64.0
 21
-42.0
 31
0.0
  0
LINE
  5
1C9F
  8
0
  6
CONTINUOUS
 62
     3
 10
104.0
 20
42.0
 30
0.0
 11
104.0
 21
-42.0
 31
0.0
  0
LINE
  5
1CA0
  8
0
  6
CONTINUOUS
 62
     3
 10
64.0
 20
-42.0
 30
0.0
 11
6.9
 21
-49.92
 31
0.0
  0
LINE
  5
1CA1
  8
0
  6
CONTINUOUS
 62
     3
 10
64.0
 20
-42.0
 30
0.0
 11
104.0
 21
-42.0
 31
0.0
  0
LINE
  5
1CA2
  8
0
  6
CONTINUOUS
 62
     3
 10
64.0
 20
42.0
 30
0.0
 11
104.0
 21
42.0
 31
0.0
  0
LINE
  5
1CA3
  8
0
  6
CONTINUOUS
 62
     3
 10
64.0
 20
42.0
 30
0.0
 11
6.9
 21
49.92
 31
0.0
  0
LINE
  5
1CA4
  8
0
  6
CONTINUOUS
 62
     3
 10
308.6
 20
24.41
 30
0.0
 11
308.289732
 21
20.412322
 31
0.0
  0
LINE
  5
1CA5
  8
0
  6
CONTINUOUS
 62
     3
 10
301.9
 20
-51.31
 30
0.0
 11
301.6
 21
-55.29
 31
0.0
  0
POINT
  5
1CA6
  8
ô_
 62
     1
 10
4000.0
 20
-404.98
 30
0.0
  0
ARC
  5
1CA7
  8
0
  6
CONTINUOUS
 62
     3
 10
4000.0
 20
-196.0
 30
0.0
 40
50.0
 50
9.17728
 51
147.395
  0
LINE
  5
1CA8
  8
0
  6
CONTINUOUS
 62
     3
 10
3865.0
 20
-300.0
 30
0.0
 11
2665.0
 21
-205.0
 31
0.0
  0
LINE
  5
1CA9
  8
0
  6
CONTINUOUS
 62
     3
 10
2665.0
 20
-595.0
 30
0.0
 11
3865.0
 21
-500.0
 31
0.0
  0
LINE
  5
1CAA
  8
0
  6
CONTINUOUS
 62
     3
 10
2231.5
 20
-375.16
 30
0.0
 11
2122.0
 21
-207.81
 31
0.0
  0
LINE
  5
1CAB
  8
0
  6
CONTINUOUS
 62
     3
 10
2215.2
 20
-400.0
 30
0.0
 11
2087.5
 21
-204.88
 31
0.0
  0
LINE
  5
1CAC
  8
0
  6
CONTINUOUS
 62
     3
 10
2329.5
 20
-574.54
 30
0.0
 11
2231.5
 21
-424.83
 31
0.0
  0
LINE
  5
1CAD
  8
0
  6
CONTINUOUS
 62
     3
 10
2360.3
 20
-571.92
 30
0.0
 11
2247.8
 21
-400.0
 31
0.0
  0
LINE
  5
1CAE
  8
0
  6
CONTINUOUS
 62
     3
 10
2087.5
 20
-595.13
 30
0.0
 11
2329.5
 21
-225.46
 31
0.0
  0
LINE
  5
1CAF
  8
0
  6
CONTINUOUS
 62
     3
 10
2122.0
 20
-592.2
 30
0.0
 11
2360.3
 21
-228.08
 31
0.0
  0
LINE
  5
1CB0
  8
0
  6
CONTINUOUS
 62
     3
 10
2539.6
 20
-400.0
 30
0.0
 11
2415.0
 21
-567.26
 31
0.0
  0
LINE
  5
1CB1
  8
0
  6
CONTINUOUS
 62
     3
 10
2556.6
 20
-422.77
 30
0.0
 11
2451.2
 21
-564.18
 31
0.0
  0
LINE
  5
1CB2
  8
0
  6
CONTINUOUS
 62
     3
 10
2665.0
 20
-277.17
 30
0.0
 11
2573.5
 21
-400.0
 31
0.0
  0
LINE
  5
1CB3
  8
0
  6
CONTINUOUS
 62
     3
 10
2649.3
 20
-252.68
 30
0.0
 11
2556.6
 21
-377.23
 31
0.0
  0
LINE
  5
1CB4
  8
0
  6
CONTINUOUS
 62
     3
 10
2451.2
 20
-235.82
 30
0.0
 11
2665.0
 21
-522.83
 31
0.0
  0
LINE
  5
1CB5
  8
0
  6
CONTINUOUS
 62
     3
 10
2415.0
 20
-232.74
 30
0.0
 11
2649.3
 21
-547.33
 31
0.0
  0
LINE
  5
1CB6
  8
0
  6
CONTINUOUS
 62
     3
 10
2665.0
 20
-205.0
 30
0.0
 11
2665.0
 21
-595.0
 31
0.0
  0
LINE
  5
1CB7
  8
0
  6
CONTINUOUS
 62
     3
 10
3865.0
 20
-272.0
 30
0.0
 11
3915.0
 21
-272.0
 31
0.0
  0
LINE
  5
1CB8
  8
0
  6
CONTINUOUS
 62
     3
 10
3915.0
 20
-528.0
 30
0.0
 11
3865.0
 21
-528.0
 31
0.0
  0
LINE
  5
1CB9
  8
0
  6
CONTINUOUS
 62
     3
 10
3593.2
 20
-255.01
 30
0.0
 11
3592.5
 21
-262.98
 31
0.0
  0
LINE
  5
1CBA
  8
0
  6
CONTINUOUS
 62
     3
 10
3865.0
 20
-272.0
 30
0.0
 11
3865.0
 21
-528.0
 31
0.0
  0
ARC
  5
1CBB
  8
0
  6
CONTINUOUS
 62
     3
 10
4156.0
 20
-422.0
 30
0.0
 40
24.0
 50
270.0
 51
0.0
  0
ARC
  5
1CBC
  8
0
  6
CONTINUOUS
 62
     3
 10
4156.0
 20
-422.0
 30
0.0
 40
34.4
 50
270.0
 51
0.0
  0
ARC
  5
1CBD
  8
0
  6
CONTINUOUS
 62
     3
 10
4156.0
 20
-378.0
 30
0.0
 40
24.0
 50
0.0
 51
90.0
  0
ARC
  5
1CBE
  8
0
  6
CONTINUOUS
 62
     3
 10
4156.0
 20
-378.0
 30
0.0
 40
34.4
 50
0.0
 51
90.0
  0
CIRCLE
  5
1CBF
  8
0
  6
CONTINUOUS
 62
     3
 10
4000.0
 20
-196.0
 30
0.0
 40
25.0
  0
ARC
  5
1CC0
  8
0
  6
CONTINUOUS
 62
     3
 10
4000.0
 20
-400.0
 30
0.0
 40
64.0
 50
89.6298
 51
270.0
  0
ARC
  5
1CC1
  8
0
  6
CONTINUOUS
 62
     3
 10
4000.0
 20
-400.0
 30
0.0
 40
63.9999
 50
308.682
 51
51.3178
  0
LINE
  5
1CC2
  8
0
  6
CONTINUOUS
 62
     3
 10
4180.0
 20
-378.0
 30
0.0
 11
4180.0
 21
-422.0
 31
0.0
  0
LINE
  5
1CC3
  8
0
  6
CONTINUOUS
 62
     3
 10
4190.4
 20
-378.0
 30
0.0
 11
4190.4
 21
-422.0
 31
0.0
  0
LINE
  5
1CC4
  8
0
  6
CONTINUOUS
 62
     3
 10
4140.0
 20
-336.0
 30
0.0
 11
4140.0
 21
-464.0
 31
0.0
  0
LINE
  5
1CC5
  8
0
  6
CONTINUOUS
 62
     3
 10
4136.0
 20
-463.98
 30
0.0
 11
4144.0
 21
-467.99
 31
0.0
  0
LINE
  5
1CC6
  8
0
  6
CONTINUOUS
 62
     3
 10
4144.0
 20
-296.0
 30
0.0
 11
4144.0
 21
-332.0
 31
0.0
  0
LINE
  5
1CC7
  8
0
  6
CONTINUOUS
 62
     3
 10
4144.0
 20
-332.01
 30
0.0
 11
4136.0
 21
-336.01
 31
0.0
  0
LINE
  5
1CC8
  8
0
  6
CONTINUOUS
 62
     3
 10
4126.0
 20
-260.8
 30
0.0
 11
4126.0
 21
-296.0
 31
0.0
  0
LINE
  5
1CC9
  8
0
  6
CONTINUOUS
 62
     3
 10
4156.0
 20
-446.0
 30
0.0
 11
4140.0
 21
-446.0
 31
0.0
  0
LINE
  5
1CCA
  8
0
  6
CONTINUOUS
 62
     3
 10
4156.0
 20
-456.4
 30
0.0
 11
4140.0
 21
-456.4
 31
0.0
  0
LINE
  5
1CCB
  8
0
  6
CONTINUOUS
 62
     3
 10
4156.0
 20
-354.0
 30
0.0
 11
4140.0
 21
-354.0
 31
0.0
  0
LINE
  5
1CCC
  8
0
  6
CONTINUOUS
 62
     3
 10
4156.0
 20
-343.6
 30
0.0
 11
4140.0
 21
-343.6
 31
0.0
  0
LINE
  5
1CCD
  8
0
  6
CONTINUOUS
 62
     3
 10
4078.4
 20
-248.0
 30
0.0
 11
4121.6
 21
-248.0
 31
0.0
  0
LINE
  5
1CCE
  8
0
  6
CONTINUOUS
 62
     3
 10
4074.8
 20
-260.0
 30
0.0
 11
4125.2
 21
-260.0
 31
0.0
  0
LINE
  5
1CCF
  8
0
  6
CONTINUOUS
 62
     3
 10
4066.8
 20
-296.0
 30
0.0
 11
4049.4
 21
-188.03
 31
0.0
  0
LINE
  5
1CD0
  8
0
  6
CONTINUOUS
 62
     3
 10
3892.0
 20
-272.0
 30
0.0
 11
3957.9
 21
-169.06
 31
0.0
  0
LINE
  5
1CD1
  8
0
  6
CONTINUOUS
 62
     3
 10
4040.0
 20
-449.96
 30
0.0
 11
4040.0
 21
-460.0
 31
0.0
  0
LINE
  5
1CD2
  8
0
  6
CONTINUOUS
 62
     3
 10
4040.0
 20
-460.0
 30
0.0
 11
4044.0
 21
-464.0
 31
0.0
  0
LINE
  5
1CD3
  8
0
  6
CONTINUOUS
 62
     3
 10
4074.0
 20
-260.8
 30
0.0
 11
4074.8
 21
-260.0
 31
0.0
  0
LINE
  5
1CD4
  8
0
  6
CONTINUOUS
 62
     3
 10
4076.0
 20
-250.4
 30
0.0
 11
4076.0
 21
-260.0
 31
0.0
  0
LINE
  5
1CD5
  8
0
  6
CONTINUOUS
 62
     3
 10
4076.0
 20
-250.4
 30
0.0
 11
4078.4
 21
-248.0
 31
0.0
  0
LINE
  5
1CD6
  8
0
  6
CONTINUOUS
 62
     3
 10
4040.0
 20
-340.0
 30
0.0
 11
4040.0
 21
-350.04
 31
0.0
  0
LINE
  5
1CD7
  8
0
  6
CONTINUOUS
 62
     3
 10
4040.0
 20
-340.0
 30
0.0
 11
4044.0
 21
-336.0
 31
0.0
  0
LINE
  5
1CD8
  8
0
  6
CONTINUOUS
 62
     3
 10
4074.0
 20
-260.8
 30
0.0
 11
4074.0
 21
-296.0
 31
0.0
  0
LINE
  5
1CD9
  8
0
  6
CONTINUOUS
 62
     3
 10
3915.0
 20
-272.0
 30
0.0
 11
4000.0
 21
-296.01
 31
0.0
  0
LINE
  5
1CDA
  8
0
  6
CONTINUOUS
 62
     3
 10
4124.0
 20
-250.4
 30
0.0
 11
4124.0
 21
-260.0
 31
0.0
  0
LINE
  5
1CDB
  8
0
  6
CONTINUOUS
 62
     3
 10
4124.0
 20
-250.4
 30
0.0
 11
4121.6
 21
-248.0
 31
0.0
  0
LINE
  5
1CDC
  8
0
  6
CONTINUOUS
 62
     3
 10
4000.0
 20
-464.0
 30
0.0
 11
4140.0
 21
-464.0
 31
0.0
  0
LINE
  5
1CDD
  8
0
  6
CONTINUOUS
 62
     3
 10
4000.0
 20
-336.0
 30
0.0
 11
4140.0
 21
-336.0
 31
0.0
  0
LINE
  5
1CDE
  8
0
  6
CONTINUOUS
 62
     3
 10
4000.0
 20
-296.0
 30
0.0
 11
4144.0
 21
-296.0
 31
0.0
  0
LINE
  5
1CDF
  8
0
  6
CONTINUOUS
 62
     3
 10
4125.2
 20
-260.0
 30
0.0
 11
4126.0
 21
-260.8
 31
0.0
  0
LINE
  5
1CE0
  8
0
  6
CONTINUOUS
 62
     3
 10
4082.4
 20
-520.0
 30
0.0
 11
4117.6
 21
-520.0
 31
0.0
  0
LINE
  5
1CE1
  8
0
  6
CONTINUOUS
 62
     3
 10
4082.4
 20
-520.0
 30
0.0
 11
4080.0
 21
-511.04
 31
0.0
  0
LINE
  5
1CE2
  8
0
  6
CONTINUOUS
 62
     3
 10
4080.0
 20
-504.0
 30
0.0
 11
4080.0
 21
-511.04
 31
0.0
  0
LINE
  5
1CE3
  8
0
  6
CONTINUOUS
 62
     3
 10
4000.0
 20
-504.0
 30
0.0
 11
3915.0
 21
-528.01
 31
0.0
  0
LINE
  5
1CE4
  8
0
  6
CONTINUOUS
 62
     3
 10
4120.0
 20
-504.0
 30
0.0
 11
4120.0
 21
-511.04
 31
0.0
  0
LINE
  5
1CE5
  8
0
  6
CONTINUOUS
 62
     3
 10
4117.6
 20
-520.0
 30
0.0
 11
4120.0
 21
-511.05
 31
0.0
  0
LINE
  5
1CE6
  8
0
  6
CONTINUOUS
 62
     3
 10
4000.0
 20
-504.0
 30
0.0
 11
4144.0
 21
-504.0
 31
0.0
  0
LINE
  5
1CE7
  8
0
  6
CONTINUOUS
 62
     3
 10
4144.0
 20
-468.0
 30
0.0
 11
4144.0
 21
-504.0
 31
0.0
  0
ENDBLK
  5
1CE8
  8
0
  0
BLOCK
  8
0
  2
B110134
 70
     0
 10
0.0
 20
0.0
 30
0.0
  3
B110134
  1

  0
LINE
  5
1CF7
  8
0
  6
CONTINUOUS
 62
     3
 10
100.0
 20
-50.0
 30
0.0
 11
4550.0
 21
-50.0
 31
0.0
  0
LINE
  5
1CF8
  8
0
  6
CONTINUOUS
 62
     3
 10
100.0
 20
50.0
 30
0.0
 11
4550.0
 21
50.0
 31
0.0
  0
POINT
  5
1CF9
  8
ô_
 62
     1
 10
0.0
 20
0.0
 30
0.0
  0
LINE
  5
1CFA
  8
0
  6
CONTINUOUS
 62
     3
 10
100.0
 20
-50.0
 30
0.0
 11
-3.9
 21
-39.81
 31
0.0
  0
LINE
  5
1CFB
  8
0
  6
CONTINUOUS
 62
     3
 10
100.0
 20
50.0
 30
0.0
 11
-3.9
 21
39.81
 31
0.0
  0
CIRCLE
  5
1CFC
  8
0
  6
CONTINUOUS
 62
     3
 10
0.0
 20
0.0
 30
0.0
 40
25.0
  0
ARC
  5
1CFD
  8
0
  6
CONTINUOUS
 62
     3
 10
0.0
 20
0.0
 30
0.0
 40
40.0
 50
95.6017
 51
264.3983
  0
LINE
  5
1CFE
  8
0
  6
CONTINUOUS
 62
     3
 10
100.0
 20
50.0
 30
0.0
 11
100.0
 21
-50.0
 31
0.0
  0
CIRCLE
  5
1CFF
  8
0
  6
CONTINUOUS
 62
     3
 10
4500.0
 20
0.0
 30
0.0
 40
12.5
  0
LINE
  5
1D00
  8
0
  6
CONTINUOUS
 62
     3
 10
4550.0
 20
50.0
 30
0.0
 11
4550.0
 21
-50.0
 31
0.0
  0
ENDBLK
  5
1D01
  8
0
  0
BLOCK
  8
0
  2
B160114
 70
     0
 10
0.0
 20
0.0
 30
0.0
  3
B160114
  1

  0
POINT
  5
11C7
  8
ô_
 10
0.0
 20
0.0
 30
0.0
  0
LINE
  5
11C8
  8
0
  6
CONTINUOUS
 62
     6
 10
350.02
 20
-103.45
 30
0.0
 11
84.0
 21
-655.317
 31
0.0
  0
LINE
  5
11C9
  8
0
  6
CONTINUOUS
 62
     6
 10
350.02
 20
37.73
 30
0.0
 11
179.29
 21
325.14
 31
0.0
  0
LINE
  5
11CA
  8
0
  6
CONTINUOUS
 62
     6
 10
-350.03
 20
37.73
 30
0.0
 11
-350.03
 21
-103.45
 31
0.0
  0
LINE
  5
11CB
  8
0
  6
CONTINUOUS
 62
     6
 10
-350.03
 20
-103.45
 30
0.0
 11
-84.01
 21
-655.317
 31
0.0
  0
ARC
  5
11CC
  8
0
  6
CONTINUOUS
 62
     6
 10
-133.79
 20
-780.547
 30
0.0
 40
23.3349
 50
57.2
 51
191.6
  0
ARC
  5
11CD
  8
0
  6
CONTINUOUS
 62
     6
 10
-280.8
 20
-852.107
 30
0.0
 40
141.176
 50
358.4
 51
28.4
  0
TEXT
  5
11CE
  8
0
  6
CONTINUOUS
 62
     6
 10
42.11
 20
-945.621
 30
0.0
 40
30.0
  1
25t
 41
0.75
  0
ARC
  5
11CF
  8
0
  6
CONTINUOUS
 62
     6
 10
140.78
 20
-584.923
 30
0.0
 40
106.174
 50
221.6
 51
253.6
  0
ARC
  5
11D0
  8
0
  6
CONTINUOUS
 62
     6
 10
115.89
 20
-626.537
 30
0.0
 40
160.233
 50
190.4
 51
209.6
  0
ARC
  5
11D1
  8
0
  6
CONTINUOUS
 62
     6
 10
331.35
 20
-467.47
 30
0.0
 40
427.417
 50
213.9
 51
227.0
  0
ARC
  5
11D2
  8
0
  6
CONTINUOUS
 62
     6
 10
-23.73
 20
-847.44
 30
0.0
 40
116.285
 50
184.1
 51
204.6
  0
ARC
  5
11D3
  8
0
  6
CONTINUOUS
 62
     6
 10
29.94
 20
-836.94
 30
0.0
 40
170.345
 50
200.3
 51
61.8
  0
ARC
  5
11D4
  8
0
  6
CONTINUOUS
 62
     6
 10
-0.39
 20
-837.718
 30
0.0
 40
70.3936
 50
186.2
 51
55.2
  0
ARC
  5
11D5
  8
0
  6
CONTINUOUS
 62
     6
 10
-216.63
 20
-875.831
 30
0.0
 40
149.343
 50
11.8
 51
50.2
  0
LINE
  5
11D6
  8
0
  6
CONTINUOUS
 62
     6
 10
-84.01
 20
-655.317
 30
0.0
 11
0.0
 21
-655.317
 31
0.0
  0
LINE
  5
11D7
  8
0
  6
CONTINUOUS
 62
     6
 10
84.0
 20
-655.317
 30
0.0
 11
0.0
 21
-655.317
 31
0.0
  0
LINE
  5
11D8
  8
0
  6
CONTINUOUS
 62
     6
 10
-110.8
 20
-544.495
 30
0.0
 11
100.13
 21
-544.495
 31
0.0
  0
LINE
  5
11D9
  8
0
  6
CONTINUOUS
 62
     6
 10
179.29
 20
325.14
 30
0.0
 11
-179.29
 21
325.14
 31
0.0
  0
LINE
  5
11DA
  8
0
  6
CONTINUOUS
 62
     6
 10
-350.03
 20
37.73
 30
0.0
 11
-179.29
 21
325.14
 31
0.0
  0
LINE
  5
11DB
  8
0
  6
CONTINUOUS
 62
     6
 10
350.02
 20
37.73
 30
0.0
 11
350.02
 21
-103.45
 31
0.0
  0
ENDBLK
  5
11DC
  8
0
  0
BLOCK
  8
0
  2
B090115
 70
     0
 10
0.0
 20
0.0
 30
0.0
  3
B090115
  1

  0
POINT
  5
11FA
  8
ô_
 10
0.0
 20
0.0
 30
0.0
  0
LINE
  5
11FB
  8
0
  6
CONTINUOUS
 62
     6
 10
-200.0
 20
271.68
 30
0.0
 11
-200.0
 21
-380.0
 31
0.0
  0
LINE
  5
11FC
  8
0
  6
CONTINUOUS
 62
     6
 10
200.0
 20
271.68
 30
0.0
 11
200.0
 21
-380.0
 31
0.0
  0
ARC
  5
11FD
  8
0
  6
CONTINUOUS
 62
     6
 10
16.5
 20
-659.37
 30
0.0
 40
170.999
 50
0.03306
 51
67.0974
  0
ARC
  5
11FE
  8
0
  6
CONTINUOUS
 62
     6
 10
134.8
 20
-446.87
 30
0.0
 40
180.0
 50
174.622
 51
225.033
  0
ARC
  5
11FF
  8
0
  6
CONTINUOUS
 62
     6
 10
0.0
 20
-654.884
 30
0.0
 40
62.4999
 50
267.067
 51
0.032945
  0
ARC
  5
1200
  8
0
  6
CONTINUOUS
 62
     6
 10
16.5
 20
-675.884
 30
0.0
 40
155.0
 50
188.363
 51
269.251
  0
LINE
  5
1201
  8
0
  6
CONTINUOUS
 62
     6
 10
7.8
 20
-574.217
 30
0.0
 11
44.1
 21
-610.661
 31
0.0
  0
ARC
  5
1202
  8
0
  6
CONTINUOUS
 62
     6
 10
0.0
 20
-654.884
 30
0.0
 40
62.4997
 50
202.501
 51
267.189
  0
ARC
  5
1203
  8
0
  6
CONTINUOUS
 62
     6
 10
-399.0
 20
-736.967
 30
0.0
 40
264.999
 50
8.36312
 51
28.1901
  0
ARC
  5
1204
  8
0
  6
CONTINUOUS
 62
     6
 10
-302.5
 20
-780.217
 30
0.0
 40
265.0
 50
22.5007
 51
45.0331
  0
ARC
  5
1205
  8
0
  6
CONTINUOUS
 62
     6
 10
-143.4
 20
-599.967
 30
0.0
 40
25.0
 50
37.0589
 51
208.19
  0
LINE
  5
1206
  8
0
  6
CONTINUOUS
 62
     6
 10
-125.7
 20
-582.287
 30
0.0
 11
-115.3
 21
-592.731
 31
0.0
  0
ARC
  5
1207
  8
0
  6
CONTINUOUS
 62
     6
 10
16.5
 20
-659.37
 30
0.0
 40
171.0
 50
283.481
 51
0.032945
  0
ARC
  5
1208
  8
0
  6
CONTINUOUS
 62
     6
 10
16.5
 20
-675.884
 30
0.0
 40
155.0
 50
269.768
 51
284.901
  0
ARC
  5
1209
  8
0
  6
CONTINUOUS
 62
     6
 10
0.0
 20
-654.884
 30
0.0
 40
62.5
 50
0.032945
 51
45.0336
  0
LINE
  5
120A
  8
0
  6
CONTINUOUS
 62
     6
 10
-160.0
 20
-430.0
 30
0.0
 11
160.0
 21
-430.0
 31
0.0
  0
LINE
  5
120B
  8
0
  6
CONTINUOUS
 62
     6
 10
-200.0
 20
-77.0
 30
0.0
 11
200.0
 21
-77.0
 31
0.0
  0
LINE
  5
120C
  8
0
  6
CONTINUOUS
 62
     6
 10
-160.0
 20
-430.0
 30
0.0
 11
-200.0
 21
-380.0
 31
0.0
  0
ARC
  5
120D
  8
0
  6
CONTINUOUS
 62
     6
 10
107.9
 20
-443.95
 30
0.0
 40
62.9994
 50
167.204
 51
247.015
  0
LINE
  5
120E
  8
0
  6
CONTINUOUS
 62
     6
 10
160.0
 20
-430.0
 30
0.0
 11
200.0
 21
-380.0
 31
0.0
  0
LINE
  5
120F
  8
0
  6
CONTINUOUS
 62
     6
 10
-140.6
 20
373.0
 30
0.0
 11
140.5
 21
373.0
 31
0.0
  0
LINE
  5
1210
  8
0
  6
CONTINUOUS
 62
     6
 10
-200.0
 20
271.68
 30
0.0
 11
-140.6
 21
372.99
 31
0.0
  0
LINE
  5
1211
  8
0
  6
CONTINUOUS
 62
     6
 10
140.5
 20
373.0
 30
0.0
 11
200.0
 21
271.68
 31
0.0
  0
ENDBLK
  5
1212
  8
0
  0
ENDSEC
  0
SECTION
  2
ENTITIES
  0
LINE
  5
39
  8
0
  6
CONTINUOUS
 62
     7
 10
24924.449913
 20
-1455.390932
 30
0.0
 11
36924.449913
 21
-1455.390932
 31
0.0
  0
LINE
  5
3A
  8
0
  6
CONTINUOUS
 62
     7
 10
24924.449913
 20
-655.390932
 30
0.0
 11
36924.449913
 21
-655.390932
 31
0.0
  0
LINE
  5
3B
  8
0
  6
CONTINUOUS
 62
     7
 10
24924.449913
 20
144.609068
 30
0.0
 11
36924.449913
 21
144.609068
 31
0.0
  0
LINE
  5
3C
  8
0
  6
CONTINUOUS
 62
     7
 10
24924.449913
 20
944.609068
 30
0.0
 11
36924.449913
 21
944.609068
 31
0.0
  0
LINE
  5
3D
  8
0
  6
CONTINUOUS
 62
     7
 10
24924.449913
 20
944.609068
 30
0.0
 11
24924.449913
 21
-1455.390932
 31
0.0
  0
LINE
  5
3E
  8
0
  6
CONTINUOUS
 62
     7
 10
29345.949913
 20
944.609068
 30
0.0
 11
29345.949913
 21
-1455.390932
 31
0.0
  0
LINE
  5
3F
  8
0
  6
CONTINUOUS
 62
     7
 10
36924.449913
 20
944.609068
 30
0.0
 11
36924.449913
 21
-1455.390932
 31
0.0
  0
LINE
  5
40
  8
0
  6
CONTINUOUS
 62
     3
 10
34363.5
 20
24501.3
 30
0.0
 11
26135.5
 21
24501.3
 31
0.0
  0
LINE
  5
41
  8
0
  6
CONTINUOUS
 62
     3
 10
34619.5
 20
24411.3
 30
0.0
 11
25879.5
 21
24411.3
 31
0.0
  0
LINE
  5
42
  8
0
  6
CONTINUOUS
 62
     3
 10
25879.5
 20
23501.3
 30
0.0
 11
34619.5
 21
23501.3
 31
0.0
  0
LINE
  5
43
  8
0
  6
CONTINUOUS
 62
     3
 10
26135.5
 20
23411.3
 30
0.0
 11
34363.5
 21
23411.3
 31
0.0
  0
LINE
  5
44
  8
0
  6
CONTINUOUS
 62
     3
 10
25879.5
 20
23406.3
 30
0.0
 11
26135.5
 21
23406.3
 31
0.0
  0
LINE
  5
46
  8
0
  6
CONTINUOUS
 62
     3
 10
25829.5
 20
23403.8
 30
0.0
 11
25879.5
 21
23403.8
 31
0.0
  0
LINE
  5
47
  8
0
  6
CONTINUOUS
 62
     3
 10
25829.5
 20
23508.8
 30
0.0
 11
25879.5
 21
23508.8
 31
0.0
  0
LINE
  5
48
  8
0
  6
CONTINUOUS
 62
     3
 10
25879.5
 20
23508.8
 30
0.0
 11
25879.5
 21
23403.8
 31
0.0
  0
LINE
  5
49
  8
0
  6
CONTINUOUS
 62
     3
 10
25829.5
 20
23508.8
 30
0.0
 11
25829.5
 21
23403.8
 31
0.0
  0
LINE
  5
4B
  8
0
  6
CONTINUOUS
 62
     3
 10
25829.5
 20
23508.8
 30
0.0
 11
25758.1
 21
23518.7
 31
0.0
  0
LINE
  5
4C
  8
0
  6
CONTINUOUS
 62
     3
 10
25829.5
 20
23403.8
 30
0.0
 11
25758.1
 21
23393.9
 31
0.0
  0
LINE
  5
4D
  8
0
  6
CONTINUOUS
 62
     3
 10
26135.5
 20
23411.3
 30
0.0
 11
26135.5
 21
23406.3
 31
0.0
  0
LINE
  5
4E
  8
0
  6
CONTINUOUS
 62
     3
 10
26135.5
 20
24506.3
 30
0.0
 11
25879.5
 21
24506.3
 31
0.0
  0
LINE
  5
4F
  8
0
  6
CONTINUOUS
 62
     3
 10
25916.4
 20
24608.4
 30
0.0
 11
26199.5
 21
24507.3
 31
0.0
  0
LINE
  5
51
  8
0
  6
CONTINUOUS
 62
     3
 10
25829.5
 20
24508.8
 30
0.0
 11
25879.5
 21
24508.8
 31
0.0
  0
LINE
  5
53
  8
0
  6
CONTINUOUS
 62
     3
 10
25849.5
 20
24562.0
 30
0.0
 11
25849.5
 21
24508.8
 31
0.0
  0
LINE
  5
54
  8
0
  6
CONTINUOUS
 62
     3
 10
25879.5
 20
24508.8
 30
0.0
 11
25879.5
 21
24403.8
 31
0.0
  0
LINE
  5
55
  8
0
  6
CONTINUOUS
 62
     3
 10
25829.5
 20
24508.8
 30
0.0
 11
25829.5
 21
24403.8
 31
0.0
  0
LINE
  5
57
  8
0
  6
CONTINUOUS
 62
     3
 10
25829.5
 20
24403.8
 30
0.0
 11
25879.5
 21
24403.8
 31
0.0
  0
LINE
  5
58
  8
0
  6
CONTINUOUS
 62
     3
 10
25829.5
 20
24508.8
 30
0.0
 11
25758.1
 21
24518.7
 31
0.0
  0
LINE
  5
59
  8
0
  6
CONTINUOUS
 62
     3
 10
25829.5
 20
24403.8
 30
0.0
 11
25758.1
 21
24393.9
 31
0.0
  0
LINE
  5
5A
  8
0
  6
CONTINUOUS
 62
     3
 10
26135.5
 20
24506.3
 30
0.0
 11
26135.5
 21
24501.3
 31
0.0
  0
LINE
  5
5B
  8
0
  6
CONTINUOUS
 62
     3
 10
26199.5
 20
24507.3
 30
0.0
 11
26199.5
 21
24501.3
 31
0.0
  0
LINE
  5
5C
  8
0
  6
CONTINUOUS
 62
     3
 10
34363.5
 20
23406.3
 30
0.0
 11
34619.5
 21
23406.3
 31
0.0
  0
LINE
  5
5D
  8
0
  6
CONTINUOUS
 62
     3
 10
34363.5
 20
23406.3
 30
0.0
 11
34363.5
 21
23411.3
 31
0.0
  0
LINE
  5
5E
  8
0
  6
CONTINUOUS
 62
     3
 10
34619.5
 20
23403.8
 30
0.0
 11
34669.5
 21
23403.8
 31
0.0
  0
LINE
  5
5F
  8
0
  6
CONTINUOUS
 62
     3
 10
34619.5
 20
23508.8
 30
0.0
 11
34669.5
 21
23508.8
 31
0.0
  0
LINE
  5
60
  8
0
  6
CONTINUOUS
 62
     3
 10
34619.5
 20
23403.8
 30
0.0
 11
34619.5
 21
23508.8
 31
0.0
  0
LINE
  5
62
  8
0
  6
CONTINUOUS
 62
     3
 10
34669.5
 20
23508.8
 30
0.0
 11
34740.9
 21
23518.7
 31
0.0
  0
LINE
  5
63
  8
0
  6
CONTINUOUS
 62
     3
 10
34669.5
 20
23403.8
 30
0.0
 11
34740.9
 21
23393.9
 31
0.0
  0
LINE
  5
64
  8
0
  6
CONTINUOUS
 62
     3
 10
34669.5
 20
23403.8
 30
0.0
 11
34669.5
 21
23508.8
 31
0.0
  0
LINE
  5
66
  8
0
  6
CONTINUOUS
 62
     3
 10
34619.5
 20
24506.3
 30
0.0
 11
34363.5
 21
24506.3
 31
0.0
  0
LINE
  5
67
  8
0
  6
CONTINUOUS
 62
     3
 10
34363.5
 20
24501.3
 30
0.0
 11
34363.5
 21
24506.3
 31
0.0
  0
LINE
  5
68
  8
0
  6
CONTINUOUS
 62
     3
 10
34619.5
 20
24403.8
 30
0.0
 11
34619.5
 21
24508.8
 31
0.0
  0
LINE
  5
69
  8
0
  6
CONTINUOUS
 62
     3
 10
34669.5
 20
24403.8
 30
0.0
 11
34669.5
 21
24508.8
 31
0.0
  0
LINE
  5
6A
  8
0
  6
CONTINUOUS
 62
     3
 10
34619.5
 20
24403.8
 30
0.0
 11
34669.5
 21
24403.8
 31
0.0
  0
LINE
  5
6B
  8
0
  6
CONTINUOUS
 62
     3
 10
34669.5
 20
24403.8
 30
0.0
 11
34740.9
 21
24393.9
 31
0.0
  0
LINE
  5
6C
  8
0
  6
CONTINUOUS
 62
     3
 10
34619.5
 20
24508.8
 30
0.0
 11
34669.5
 21
24508.8
 31
0.0
  0
LINE
  5
6E
  8
0
  6
CONTINUOUS
 62
     3
 10
34669.5
 20
24508.8
 30
0.0
 11
34740.9
 21
24518.7
 31
0.0
  0
LINE
  5
70
  8
0
  6
CONTINUOUS
 62
     3
 10
21230.5
 20
24731.6
 30
0.0
 11
13002.5
 21
24731.6
 31
0.0
  0
LINE
  5
71
  8
0
  6
CONTINUOUS
 62
     3
 10
21486.5
 20
24641.6
 30
0.0
 11
12746.5
 21
24641.6
 31
0.0
  0
LINE
  5
72
  8
0
  6
CONTINUOUS
 62
     3
 10
12746.5
 20
23731.6
 30
0.0
 11
21486.5
 21
23731.6
 31
0.0
  0
LINE
  5
73
  8
0
  6
CONTINUOUS
 62
     3
 10
13002.5
 20
23641.6
 30
0.0
 11
21230.5
 21
23641.6
 31
0.0
  0
LINE
  5
74
  8
0
  6
CONTINUOUS
 62
     3
 10
12746.5
 20
23636.6
 30
0.0
 11
13002.5
 21
23636.6
 31
0.0
  0
LINE
  5
76
  8
0
  6
CONTINUOUS
 62
     3
 10
12696.5
 20
23634.1
 30
0.0
 11
12746.5
 21
23634.1
 31
0.0
  0
LINE
  5
77
  8
0
  6
CONTINUOUS
 62
     3
 10
12696.5
 20
23739.1
 30
0.0
 11
12746.5
 21
23739.1
 31
0.0
  0
LINE
  5
78
  8
0
  6
CONTINUOUS
 62
     3
 10
12746.5
 20
23739.1
 30
0.0
 11
12746.5
 21
23634.1
 31
0.0
  0
LINE
  5
79
  8
0
  6
CONTINUOUS
 62
     3
 10
12696.5
 20
23739.1
 30
0.0
 11
12696.5
 21
23634.1
 31
0.0
  0
LINE
  5
7B
  8
0
  6
CONTINUOUS
 62
     3
 10
12696.5
 20
23739.1
 30
0.0
 11
12625.1
 21
23749.0
 31
0.0
  0
LINE
  5
7C
  8
0
  6
CONTINUOUS
 62
     3
 10
12696.5
 20
23634.1
 30
0.0
 11
12625.1
 21
23624.2
 31
0.0
  0
LINE
  5
7D
  8
0
  6
CONTINUOUS
 62
     3
 10
13002.5
 20
23641.6
 30
0.0
 11
13002.5
 21
23636.6
 31
0.0
  0
LINE
  5
7E
  8
0
  6
CONTINUOUS
 62
     3
 10
13002.5
 20
24736.6
 30
0.0
 11
12746.5
 21
24736.6
 31
0.0
  0
LINE
  5
80
  8
0
  6
CONTINUOUS
 62
     3
 10
12696.5
 20
24739.1
 30
0.0
 11
12696.5
 21
24634.1
 31
0.0
  0
LINE
  5
82
  8
0
  6
CONTINUOUS
 62
     3
 10
12696.5
 20
24634.1
 30
0.0
 11
12746.5
 21
24634.1
 31
0.0
  0
LINE
  5
84
  8
0
  6
CONTINUOUS
 62
     3
 10
12696.5
 20
24739.1
 30
0.0
 11
12746.5
 21
24739.1
 31
0.0
  0
LINE
  5
86
  8
0
  6
CONTINUOUS
 62
     3
 10
12696.5
 20
24739.1
 30
0.0
 11
12625.1
 21
24749.0
 31
0.0
  0
LINE
  5
87
  8
0
  6
CONTINUOUS
 62
     3
 10
12696.5
 20
24634.1
 30
0.0
 11
12625.1
 21
24624.2
 31
0.0
  0
LINE
  5
88
  8
0
  6
CONTINUOUS
 62
     3
 10
13002.5
 20
24736.6
 30
0.0
 11
13002.5
 21
24731.6
 31
0.0
  0
LINE
  5
89
  8
0
  6
CONTINUOUS
 62
     3
 10
21230.5
 20
23636.6
 30
0.0
 11
21486.5
 21
23636.6
 31
0.0
  0
LINE
  5
8A
  8
0
  6
CONTINUOUS
 62
     3
 10
21230.5
 20
23636.6
 30
0.0
 11
21230.5
 21
23641.6
 31
0.0
  0
LINE
  5
8B
  8
0
  6
CONTINUOUS
 62
     3
 10
21486.5
 20
23634.1
 30
0.0
 11
21536.5
 21
23634.1
 31
0.0
  0
LINE
  5
8C
  8
0
  6
CONTINUOUS
 62
     3
 10
21486.5
 20
23739.1
 30
0.0
 11
21536.5
 21
23739.1
 31
0.0
  0
LINE
  5
8D
  8
0
  6
CONTINUOUS
 62
     3
 10
21486.5
 20
23634.1
 30
0.0
 11
21486.5
 21
23739.1
 31
0.0
  0
LINE
  5
8F
  8
0
  6
CONTINUOUS
 62
     3
 10
21536.5
 20
23739.1
 30
0.0
 11
21607.9
 21
23749.0
 31
0.0
  0
LINE
  5
90
  8
0
  6
CONTINUOUS
 62
     3
 10
21536.5
 20
23634.1
 30
0.0
 11
21607.9
 21
23624.2
 31
0.0
  0
LINE
  5
91
  8
0
  6
CONTINUOUS
 62
     3
 10
21536.5
 20
23634.1
 30
0.0
 11
21536.5
 21
23739.1
 31
0.0
  0
LINE
  5
93
  8
0
  6
CONTINUOUS
 62
     3
 10
21486.5
 20
24736.6
 30
0.0
 11
21230.5
 21
24736.6
 31
0.0
  0
LINE
  5
94
  8
0
  6
CONTINUOUS
 62
     3
 10
21230.5
 20
24731.6
 30
0.0
 11
21230.5
 21
24736.6
 31
0.0
  0
LINE
  5
95
  8
0
  6
CONTINUOUS
 62
     3
 10
21486.5
 20
24634.1
 30
0.0
 11
21486.5
 21
24739.1
 31
0.0
  0
LINE
  5
96
  8
0
  6
CONTINUOUS
 62
     3
 10
21536.5
 20
24634.1
 30
0.0
 11
21536.5
 21
24739.1
 31
0.0
  0
LINE
  5
97
  8
0
  6
CONTINUOUS
 62
     3
 10
21486.5
 20
24634.1
 30
0.0
 11
21536.5
 21
24634.1
 31
0.0
  0
LINE
  5
98
  8
0
  6
CONTINUOUS
 62
     3
 10
21536.5
 20
24634.1
 30
0.0
 11
21607.9
 21
24624.2
 31
0.0
  0
LINE
  5
99
  8
0
  6
CONTINUOUS
 62
     3
 10
21486.5
 20
24739.1
 30
0.0
 11
21536.5
 21
24739.1
 31
0.0
  0
LINE
  5
9B
  8
0
  6
CONTINUOUS
 62
     3
 10
21536.5
 20
24739.1
 30
0.0
 11
21607.9
 21
24749.0
 31
0.0
  0
LINE
  5
9D
  8
0
  6
CONTINUOUS
 62
     3
 10
4836.3
 20
24782.2
 30
0.0
 11
4606.26
 21
24699.8
 31
0.0
  0
LINE
  5
9E
  8
0
  6
CONTINUOUS
 62
     3
 10
4829.96
 20
23832.2
 30
0.0
 11
4702.96
 21
23909.2
 31
0.0
  0
LINE
  5
9F
  8
0
  6
CONTINUOUS
 62
     3
 10
4499.16
 20
23791.5
 30
0.0
 11
4860.160762
 21
23999.9427
 31
0.0
  0
LINE
  5
A0
  8
0
  6
CONTINUOUS
 62
     3
 10
4372.66
 20
24738.1
 30
0.0
 11
4372.66
 21
24624.6
 31
0.0
  0
LINE
  5
A1
  8
0
  6
CONTINUOUS
 62
     3
 10
4603.56
 20
24707.3
 30
0.0
 11
3837.36
 21
24432.8
 31
0.0
  0
LINE
  5
A2
  8
0
  6
CONTINUOUS
 62
     3
 10
3827.96
 20
23728.6
 30
0.0
 11
3887.06
 21
23937.1
 31
0.0
  0
LINE
  5
A3
  8
0
  6
CONTINUOUS
 62
     3
 10
3812.16
 20
24397.0
 30
0.0
 11
3812.16
 21
24188.1
 31
0.0
  0
LINE
  5
A4
  8
0
  6
CONTINUOUS
 62
     3
 10
3938.26
 20
23643.6
 30
0.0
 11
4124.96
 21
23753.8
 31
0.0
  0
LINE
  5
A5
  8
0
  6
CONTINUOUS
 62
     3
 10
4603.56
 20
24707.3
 30
0.0
 11
4606.26
 21
24699.8
 31
0.0
  0
LINE
  5
A6
  8
0
  6
CONTINUOUS
 62
     3
 10
4437.66
 20
24738.1
 30
0.0
 11
4437.66
 21
24647.9
 31
0.0
  0
LINE
  5
A7
  8
0
  6
CONTINUOUS
 62
     3
 10
9690.16
 20
23689.873452
 30
0.0
 11
5258.16
 21
23968.8
 31
0.0
  0
LINE
  5
A8
  8
0
  6
CONTINUOUS
 62
     3
 10
9384.699833
 20
24767.102506
 30
0.0
 11
5258.16
 21
24507.5
 31
0.0
  0
LINE
  5
A9
  8
0
  6
CONTINUOUS
 62
     3
 10
9640.16
 20
23783.2
 30
0.0
 11
6366.26
 21
23989.3
 31
0.0
  0
LINE
  5
AA
  8
0
  6
CONTINUOUS
 62
     3
 10
9640.16
 20
24693.0
 30
0.0
 11
6366.26
 21
24487.0
 31
0.0
  0
LINE
  5
AB
  8
0
  6
CONTINUOUS
 62
     3
 10
4929.96
 20
24768.3
 30
0.0
 11
5258.16
 21
24523.1
 31
0.0
  0
LINE
  5
AC
  8
0
  6
CONTINUOUS
 62
     3
 10
4903.56
 20
23860.1
 30
0.0
 11
4944.96
 21
23993.6
 31
0.0
  0
LINE
  5
AD
  8
0
  6
CONTINUOUS
 62
     3
 10
5258.16
 20
24523.1
 30
0.0
 11
5258.16
 21
23970.1
 31
0.0
  0
LINE
  5
AF
  8
0
  6
CONTINUOUS
 62
     3
 10
5258.16
 20
23970.1
 30
0.0
 11
4860.160762
 21
23999.9427
 31
0.0
  0
LINE
  5
B0
  8
0
  6
CONTINUOUS
 62
     3
 10
6467.36
 20
23923.1
 30
0.0
 11
6113.76
 21
24154.4
 31
0.0
  0
LINE
  5
B8
  8
0
  6
CONTINUOUS
 62
     3
 10
6113.76
 20
24321.9
 30
0.0
 11
6467.36
 21
24553.1
 31
0.0
  0
LINE
  5
BB
  8
0
  6
CONTINUOUS
 62
     3
 10
6454.26
 20
23983.7
 30
0.0
 11
6447.56
 21
23998.2
 31
0.0
  0
LINE
  5
BC
  8
0
  6
CONTINUOUS
 62
     3
 10
6447.56
 20
24478.1
 30
0.0
 11
6454.26
 21
24492.6
 31
0.0
  0
LINE
  5
C1
  8
0
  6
CONTINUOUS
 62
     3
 10
6467.36
 20
24583.5
 30
0.0
 11
6467.36
 21
24553.1
 31
0.0
  0
LINE
  5
C3
  8
0
  6
CONTINUOUS
 62
     3
 10
9634.16
 20
23788.6
 30
0.0
 11
9390.66
 21
23803.9
 31
0.0
  0
LINE
  5
C4
  8
0
  6
CONTINUOUS
 62
     3
 10
9497.46
 20
23648.0
 30
0.0
 11
9623.46
 21
23682.1
 31
0.0
  0
LINE
  5
C5
  8
0
  6
CONTINUOUS
 62
     3
 10
9390.36
 20
23798.9
 30
0.0
 11
9390.66
 21
23803.9
 31
0.0
  0
LINE
  5
C6
  8
0
  6
CONTINUOUS
 62
     3
 10
9472.76
 20
23662.7
 30
0.0
 11
9462.961644
 21
23704.17211
 31
0.0
  0
LINE
  5
C8
  8
0
  6
CONTINUOUS
 62
     3
 10
9623.46
 20
23682.1
 30
0.0
 11
9624.141617
 21
23694.028299
 31
0.0
  0
LINE
  5
C9
  8
0
  6
CONTINUOUS
 62
     3
 10
9633.86
 20
23783.6
 30
0.0
 11
9634.26
 21
23788.6
 31
0.0
  0
LINE
  5
CB
  8
0
  6
CONTINUOUS
 62
     3
 10
9690.16
 20
23685.6
 30
0.0
 11
9690.16
 21
23790.6
 31
0.0
  0
LINE
  5
CE
  8
0
  6
CONTINUOUS
 62
     3
 10
9690.16
 20
23790.6
 30
0.0
 11
9761.56
 21
23800.5
 31
0.0
  0
LINE
  5
CF
  8
0
  6
CONTINUOUS
 62
     3
 10
9690.16
 20
23685.7
 30
0.0
 11
9761.56
 21
23675.7
 31
0.0
  0
LINE
  5
D1
  8
0
  6
CONTINUOUS
 62
     3
 10
9384.699833
 20
24767.102506
 30
0.0
 11
9384.36
 21
24772.2
 31
0.0
  0
LINE
  5
D2
  8
0
  6
CONTINUOUS
 62
     3
 10
9640.16
 20
24693.0
 30
0.0
 11
9640.16
 21
24685.6
 31
0.0
  0
LINE
  5
D4
  8
0
  6
CONTINUOUS
 62
     3
 10
9620.26
 20
24910.5
 30
0.0
 11
9637.76
 21
24860.5
 31
0.0
  0
LINE
  5
D5
  8
0
  6
CONTINUOUS
 62
     3
 10
9572.76
 20
24860.5
 30
0.0
 11
9590.26
 21
24910.5
 31
0.0
  0
LINE
  5
D6
  8
0
  6
CONTINUOUS
 62
     3
 10
9572.76
 20
24860.5
 30
0.0
 11
9572.76
 21
24783.536037
 31
0.0
  0
LINE
  5
D7
  8
0
  6
CONTINUOUS
 62
     3
 10
9637.76
 20
24860.5
 30
0.0
 11
9637.76
 21
24787.44709
 31
0.0
  0
LINE
  5
D8
  8
0
  6
CONTINUOUS
 62
     3
 10
9590.26
 20
24910.5
 30
0.0
 11
9620.26
 21
24910.5
 31
0.0
  0
LINE
  5
D9
  8
0
  6
CONTINUOUS
 62
     3
 10
9640.16
 20
24685.6
 30
0.0
 11
9690.16
 21
24685.6
 31
0.0
  0
LINE
  5
DA
  8
0
  6
CONTINUOUS
 62
     3
 10
9690.16
 20
24790.6
 30
0.0
 11
9761.56
 21
24800.5
 31
0.0
  0
LINE
  5
DB
  8
0
  6
CONTINUOUS
 62
     3
 10
9690.16
 20
24685.6
 30
0.0
 11
9761.56
 21
24675.7
 31
0.0
  0
LINE
  5
DC
  8
0
  6
CONTINUOUS
 62
     3
 10
3819.14
 20
12262.1
 30
0.0
 11
3819.14
 21
12157.1
 31
0.0
  0
LINE
  5
DE
  8
0
  6
CONTINUOUS
 62
     3
 10
3869.14
 20
12262.1
 30
0.0
 11
3869.14
 21
12157.1
 31
0.0
  0
LINE
  5
DF
  8
0
  6
CONTINUOUS
 62
     3
 10
4124.84
 20
12179.1
 30
0.0
 11
3869.14
 21
12159.437859
 31
0.0
  0
LINE
  5
E0
  8
0
  6
CONTINUOUS
 62
     3
 10
3819.14
 20
12157.1
 30
0.0
 11
3869.14
 21
12157.1
 31
0.0
  0
LINE
  5
E1
  8
0
  6
CONTINUOUS
 62
     3
 10
3819.14
 20
12157.1
 30
0.0
 11
3747.8
 21
12147.2
 31
0.0
  0
LINE
  5
E2
  8
0
  6
CONTINUOUS
 62
     3
 10
4124.46
 20
13235.1
 30
0.0
 11
9079.13
 21
12854.7
 31
0.0
  0
LINE
  5
E3
  8
0
  6
CONTINUOUS
 62
     3
 10
3869.18
 20
13164.5
 30
0.0
 11
9079.13
 21
12764.5
 31
0.0
  0
LINE
  5
E4
  8
0
  6
CONTINUOUS
 62
     3
 10
9079.13
 20
12564.5
 30
0.0
 11
4124.46
 21
12184.1
 31
0.0
  0
LINE
  5
E5
  8
0
  6
CONTINUOUS
 62
     3
 10
9079.13
 20
12654.7
 30
0.0
 11
3869.14
 21
12254.7
 31
0.0
  0
LINE
  5
E6
  8
0
  6
CONTINUOUS
 62
     3
 10
3869.14
 20
13259.79527
 30
0.0
 11
4124.84
 21
13240.1
 31
0.0
  0
LINE
  5
E7
  8
0
  6
CONTINUOUS
 62
     3
 10
3819.14
 20
12262.1
 30
0.0
 11
3869.14
 21
12262.1
 31
0.0
  0
LINE
  5
E9
  8
0
  6
CONTINUOUS
 62
     3
 10
3819.13
 20
12262.1
 30
0.0
 11
3747.79
 21
12272.0
 31
0.0
  0
LINE
  5
EB
  8
0
  6
CONTINUOUS
 62
     3
 10
3869.14
 20
13262.1
 30
0.0
 11
3869.14
 21
13157.1
 31
0.0
  0
LINE
  5
EC
  8
0
  6
CONTINUOUS
 62
     3
 10
3819.14
 20
13262.1
 30
0.0
 11
3819.14
 21
13157.1
 31
0.0
  0
LINE
  5
ED
  8
0
  6
CONTINUOUS
 62
     3
 10
3819.14
 20
13157.1
 30
0.0
 11
3869.14
 21
13157.1
 31
0.0
  0
LINE
  5
EE
  8
0
  6
CONTINUOUS
 62
     3
 10
3819.14
 20
13262.1
 30
0.0
 11
3869.14
 21
13262.1
 31
0.0
  0
LINE
  5
F1
  8
0
  6
CONTINUOUS
 62
     3
 10
3855.72
 20
13326.6
 30
0.0
 11
3834.17
 21
13262.1
 31
0.0
  0
LINE
  5
F2
  8
0
  6
CONTINUOUS
 62
     3
 10
3819.14
 20
13157.1
 30
0.0
 11
3747.8
 21
13147.2
 31
0.0
  0
LINE
  5
F3
  8
0
  6
CONTINUOUS
 62
     3
 10
3819.13
 20
13262.1
 30
0.0
 11
3747.79
 21
13272.0
 31
0.0
  0
LINE
  5
F4
  8
0
  6
CONTINUOUS
 62
     3
 10
3912.57
 20
13326.8
 30
0.0
 11
3934.18
 21
13254.8
 31
0.0
  0
LINE
  5
F5
  8
0
  6
CONTINUOUS
 62
     3
 10
4292.0
 20
12287.2
 30
0.0
 11
4292.0
 21
12287.2
 31
0.0
  0
LINE
  5
F6
  8
0
  6
CONTINUOUS
 62
     3
 10
4124.44
 20
12184.3
 30
0.0
 11
4124.84
 21
12179.1
 31
0.0
  0
LINE
  5
F8
  8
0
  6
CONTINUOUS
 62
     3
 10
7686.45
 20
13023.6
 30
0.0
 11
8561.46
 21
13400.7
 31
0.0
  0
LINE
  5
F9
  8
0
  6
CONTINUOUS
 62
     3
 10
7627.14
 20
13096.1
 30
0.0
 11
8525.84
 21
13483.3
 31
0.0
  0
LINE
  5
FA
  8
0
  6
CONTINUOUS
 62
     3
 10
7373.5
 20
12790.1
 30
0.0
 11
7229.16
 21
12896.5
 31
0.0
  0
LINE
  5
FB
  8
0
  6
CONTINUOUS
 62
     3
 10
7373.5
 20
12629.1
 30
0.0
 11
7229.15
 21
12522.7
 31
0.0
  0
LINE
  5
FC
  8
0
  6
CONTINUOUS
 62
     3
 10
7229.14
 20
12522.7
 30
0.0
 11
7229.14
 21
12512.7
 31
0.0
  0
LINE
  5
FD
  8
0
  6
CONTINUOUS
 62
     3
 10
7229.14
 20
12906.5
 30
0.0
 11
7229.14
 21
12896.5
 31
0.0
  0
LINE
  5
FE
  8
0
  6
CONTINUOUS
 62
     3
 10
7622.11
 20
13093.7
 30
0.0
 11
7464.6
 21
13007.8
 31
0.0
  0
LINE
  5
FF
  8
0
  6
CONTINUOUS
 62
     3
 10
7464.59
 20
13007.8
 30
0.0
 11
7462.39
 21
12978.9
 31
0.0
  0
LINE
  5
100
  8
0
  6
CONTINUOUS
 62
     3
 10
7688.53
 20
13050.7
 30
0.0
 11
7681.72
 21
12962.0
 31
0.0
  0
LINE
  5
101
  8
0
  6
CONTINUOUS
 62
     3
 10
8997.8
 20
13609.9
 30
0.0
 11
8924.92
 21
13530.1
 31
0.0
  0
LINE
  5
102
  8
0
  6
CONTINUOUS
 62
     3
 10
8661.62
 20
13547.3
 30
0.0
 11
8849.88
 21
13628.4
 31
0.0
  0
LINE
  5
103
  8
0
  6
CONTINUOUS
 62
     3
 10
8897.37
 20
13518.2
 30
0.0
 11
8841.97
 21
13646.8
 31
0.0
  0
LINE
  5
104
  8
0
  6
CONTINUOUS
 62
     3
 10
8739.36
 20
12890.8
 30
0.0
 11
8839.06
 21
12883.2
 31
0.0
  0
LINE
  5
105
  8
0
  6
CONTINUOUS
 62
     3
 10
8701.19
 20
13455.5
 30
0.0
 11
8889.46
 21
13536.6
 31
0.0
  0
LINE
  5
106
  8
0
  6
CONTINUOUS
 62
     3
 10
8825.94
 20
12741.7
 30
0.0
 11
8762.44
 21
12788.8
 31
0.0
  0
LINE
  5
107
  8
0
  6
CONTINUOUS
 62
     3
 10
8825.94
 20
12677.5
 30
0.0
 11
8762.44
 21
12630.4
 31
0.0
  0
LINE
  5
108
  8
0
  6
CONTINUOUS
 62
     3
 10
8739.36
 20
12890.8
 30
0.0
 11
8738.59
 21
12880.9
 31
0.0
  0
LINE
  5
109
  8
0
  6
CONTINUOUS
 62
     3
 10
8757.77
 20
12934.8
 30
0.0
 11
8754.31
 21
12889.7
 31
0.0
  0
LINE
  5
10A
  8
0
  6
CONTINUOUS
 62
     3
 10
8816.95
 20
12938.8
 30
0.0
 11
8829.09
 21
12884.0
 31
0.0
  0
LINE
  5
10B
  8
0
  6
CONTINUOUS
 62
     3
 10
8655.68
 20
13561.1
 30
0.0
 11
8609.77
 21
13541.3
 31
0.0
  0
LINE
  5
10C
  8
0
  6
CONTINUOUS
 62
     3
 10
8609.99
 20
13540.8
 30
0.0
 11
8661.21
 21
13421.9
 31
0.0
  0
LINE
  5
10D
  8
0
  6
CONTINUOUS
 62
     3
 10
8567.39
 20
13386.9
 30
0.0
 11
8659.23
 21
13426.5
 31
0.0
  0
LINE
  5
10E
  8
0
  6
CONTINUOUS
 62
     3
 10
8519.91
 20
13497.1
 30
0.0
 11
8567.39
 21
13386.9
 31
0.0
  0
LINE
  5
10F
  8
0
  6
CONTINUOUS
 62
     3
 10
8519.91
 20
13497.1
 30
0.0
 11
8611.74
 21
13536.7
 31
0.0
  0
LINE
  5
110
  8
0
  6
CONTINUOUS
 62
     3
 10
8585.76
 20
13394.8
 30
0.0
 11
8613.46
 21
13330.5
 31
0.0
  0
LINE
  5
111
  8
0
  6
CONTINUOUS
 62
     3
 10
8661.21
 20
13421.9
 30
0.0
 11
8707.13
 21
13441.7
 31
0.0
  0
LINE
  5
112
  8
0
  6
CONTINUOUS
 62
     3
 10
8655.68
 20
13561.1
 30
0.0
 11
8707.13
 21
13441.7
 31
0.0
  0
LINE
  5
113
  8
0
  6
CONTINUOUS
 62
     3
 10
8640.86
 20
13418.6
 30
0.0
 11
8657.25
 21
13380.5
 31
0.0
  0
LINE
  5
114
  8
0
  6
CONTINUOUS
 62
     3
 10
8662.53
 20
13371.3
 30
0.0
 11
8816.95
 21
12938.8
 31
0.0
  0
LINE
  5
115
  8
0
  6
CONTINUOUS
 62
     3
 10
8606.03
 20
13351.1
 30
0.0
 11
8757.27
 21
12928.2
 31
0.0
  0
LINE
  5
116
  8
0
  6
CONTINUOUS
 62
     3
 10
9079.13
 20
12869.6
 30
0.0
 11
9079.13
 21
12549.6
 31
0.0
  0
LINE
  5
117
  8
0
  6
CONTINUOUS
 62
     3
 10
9099.12
 20
12869.6
 30
0.0
 11
9239.12
 21
12839.6
 31
0.0
  0
LINE
  5
118
  8
0
  6
CONTINUOUS
 62
     3
 10
9396.62
 20
12883.6
 30
0.0
 11
9396.62
 21
12839.6
 31
0.0
  0
LINE
  5
119
  8
0
  6
CONTINUOUS
 62
     3
 10
9331.62
 20
12883.6
 30
0.0
 11
9331.62
 21
12839.6
 31
0.0
  0
LINE
  5
11A
  8
0
  6
CONTINUOUS
 62
     3
 10
9239.12
 20
12839.6
 30
0.0
 11
9419.12
 21
12839.6
 31
0.0
  0
LINE
  5
11B
  8
0
  6
CONTINUOUS
 62
     3
 10
9239.12
 20
12789.6
 30
0.0
 11
9414.12
 21
12789.6
 31
0.0
  0
LINE
  5
11C
  8
0
  6
CONTINUOUS
 62
     3
 10
9239.12
 20
12579.6
 30
0.0
 11
9419.12
 21
12579.6
 31
0.0
  0
LINE
  5
11D
  8
0
  6
CONTINUOUS
 62
     3
 10
9239.12
 20
12629.6
 30
0.0
 11
9414.12
 21
12629.6
 31
0.0
  0
LINE
  5
11E
  8
0
  6
CONTINUOUS
 62
     3
 10
9099.13
 20
12549.6
 30
0.0
 11
9079.13
 21
12549.6
 31
0.0
  0
LINE
  5
11F
  8
0
  6
CONTINUOUS
 62
     3
 10
9289.12
 20
12784.6
 30
0.0
 11
9294.12
 21
12789.6
 31
0.0
  0
LINE
  5
120
  8
0
  6
CONTINUOUS
 62
     3
 10
9289.12
 20
12784.6
 30
0.0
 11
9289.12
 21
12772.1
 31
0.0
  0
LINE
  5
121
  8
0
  6
CONTINUOUS
 62
     3
 10
9289.12
 20
12634.6
 30
0.0
 11
9294.12
 21
12629.6
 31
0.0
  0
LINE
  5
122
  8
0
  6
CONTINUOUS
 62
     3
 10
9289.12
 20
12647.2
 30
0.0
 11
9289.12
 21
12634.6
 31
0.0
  0
LINE
  5
123
  8
0
  6
CONTINUOUS
 62
     3
 10
9239.13
 20
12579.6
 30
0.0
 11
9099.13
 21
12549.6
 31
0.0
  0
LINE
  5
124
  8
0
  6
CONTINUOUS
 62
     3
 10
9419.14
 20
12794.6
 30
0.0
 11
9409.13
 21
12789.6
 31
0.0
  0
LINE
  5
125
  8
0
  6
CONTINUOUS
 62
     3
 10
9419.12
 20
12839.6
 30
0.0
 11
9419.12
 21
12794.6
 31
0.0
  0
LINE
  5
126
  8
0
  6
CONTINUOUS
 62
     3
 10
9434.12
 20
12780.1
 30
0.0
 11
9414.12
 21
12780.1
 31
0.0
  0
LINE
  5
127
  8
0
  6
CONTINUOUS
 62
     3
 10
9434.12
 20
12767.1
 30
0.0
 11
9414.12
 21
12767.1
 31
0.0
  0
LINE
  5
128
  8
0
  6
CONTINUOUS
 62
     3
 10
9409.13
 20
12629.6
 30
0.0
 11
9419.14
 21
12624.6
 31
0.0
  0
LINE
  5
129
  8
0
  6
CONTINUOUS
 62
     3
 10
9342.12
 20
12559.6
 30
0.0
 11
9339.12
 21
12570.8
 31
0.0
  0
LINE
  5
12A
  8
0
  6
CONTINUOUS
 62
     3
 10
9386.12
 20
12559.6
 30
0.0
 11
9389.12
 21
12570.8
 31
0.0
  0
LINE
  5
12B
  8
0
  6
CONTINUOUS
 62
     3
 10
9389.12
 20
12579.6
 30
0.0
 11
9389.12
 21
12570.8
 31
0.0
  0
LINE
  5
12C
  8
0
  6
CONTINUOUS
 62
     3
 10
9339.12
 20
12579.6
 30
0.0
 11
9339.12
 21
12570.8
 31
0.0
  0
LINE
  5
12D
  8
0
  6
CONTINUOUS
 62
     3
 10
9342.12
 20
12559.6
 30
0.0
 11
9386.12
 21
12559.6
 31
0.0
  0
LINE
  5
12E
  8
0
  6
CONTINUOUS
 62
     3
 10
9419.12
 20
12624.6
 30
0.0
 11
9419.12
 21
12579.6
 31
0.0
  0
LINE
  5
12F
  8
0
  6
CONTINUOUS
 62
     3
 10
9434.12
 20
12639.1
 30
0.0
 11
9414.12
 21
12639.1
 31
0.0
  0
LINE
  5
130
  8
0
  6
CONTINUOUS
 62
     3
 10
9434.12
 20
12652.1
 30
0.0
 11
9414.12
 21
12652.1
 31
0.0
  0
LINE
  5
131
  8
0
  6
CONTINUOUS
 62
     3
 10
9477.12
 20
12737.1
 30
0.0
 11
9477.12
 21
12682.1
 31
0.0
  0
LINE
  5
132
  8
0
  6
CONTINUOUS
 62
     3
 10
9464.12
 20
12737.1
 30
0.0
 11
9464.12
 21
12682.1
 31
0.0
  0
LINE
  5
133
  8
0
  6
CONTINUOUS
 62
     3
 10
9414.12
 20
12789.6
 30
0.0
 11
9414.12
 21
12629.6
 31
0.0
  0
LINE
  5
134
  8
0
  6
CONTINUOUS
 62
     3
 10
9079.13
 20
12869.6
 30
0.0
 11
9099.13
 21
12869.6
 31
0.0
  0
LINE
  5
135
  8
0
  6
CONTINUOUS
 62
     3
 10
8839.06
 20
12883.2
 30
0.0
 11
8838.29
 21
12873.2
 31
0.0
  0
LINE
  5
136
  8
0
  6
CONTINUOUS
 62
     3
 10
8924.92
 20
13530.1
 30
0.0
 11
8897.37
 21
13518.2
 31
0.0
  0
LINE
  5
137
  8
0
  6
CONTINUOUS
 62
     3
 10
9334.12
 20
12896.6
 30
0.0
 11
9337.12
 21
12899.6
 31
0.0
  0
LINE
  5
138
  8
0
  6
CONTINUOUS
 62
     3
 10
9394.12
 20
12896.6
 30
0.0
 11
9391.12
 21
12899.6
 31
0.0
  0
LINE
  5
139
  8
0
  6
CONTINUOUS
 62
     3
 10
9334.12
 20
12896.6
 30
0.0
 11
9334.12
 21
12884.6
 31
0.0
  0
LINE
  5
13A
  8
0
  6
CONTINUOUS
 62
     3
 10
9394.12
 20
12896.6
 30
0.0
 11
9394.12
 21
12884.6
 31
0.0
  0
LINE
  5
13B
  8
0
  6
CONTINUOUS
 62
     3
 10
9332.62
 20
12884.6
 30
0.0
 11
9395.62
 21
12884.6
 31
0.0
  0
LINE
  5
13C
  8
0
  6
CONTINUOUS
 62
     3
 10
9337.12
 20
12899.6
 30
0.0
 11
9391.12
 21
12899.6
 31
0.0
  0
LINE
  5
13D
  8
0
  6
CONTINUOUS
 62
     3
 10
9395.62
 20
12884.6
 30
0.0
 11
9396.62
 21
12883.6
 31
0.0
  0
LINE
  5
13E
  8
0
  6
CONTINUOUS
 62
     3
 10
9331.62
 20
12883.6
 30
0.0
 11
9332.62
 21
12884.6
 31
0.0
  0
LINE
  5
13F
  8
0
  6
CONTINUOUS
 62
     3
 10
8977.6
 20
13656.8
 30
0.0
 11
8869.52
 21
13658.7
 31
0.0
  0
LINE
  5
140
  8
0
  6
CONTINUOUS
 62
     3
 10
8841.97
 20
13646.8
 30
0.0
 11
8869.52
 21
13658.7
 31
0.0
  0
LINE
  5
141
  8
0
  6
CONTINUOUS
 62
     3
 10
16585.3
 20
13024.4
 30
0.0
 11
16450.5
 21
13098.2
 31
0.0
  0
LINE
  5
142
  8
0
  6
CONTINUOUS
 62
     3
 10
16561.6
 20
12969.3
 30
0.0
 11
16449.551859
 21
12997.81225
 31
0.0
  0
LINE
  5
143
  8
0
  6
CONTINUOUS
 62
     3
 10
16172.1
 20
12291.7
 30
0.0
 11
18825.6
 21
11952.9
 31
0.0
  0
LINE
  5
145
  8
0
  6
CONTINUOUS
 62
     3
 10
16488.547475
 20
12868.347475
 30
0.0
 11
16716.3
 21
13096.1
 31
0.0
  0
LINE
  5
146
  8
0
  6
CONTINUOUS
 62
     3
 10
15727.5
 20
13529.9
 30
0.0
 11
15879.5
 21
13906.5
 31
0.0
  0
LINE
  5
147
  8
0
  6
CONTINUOUS
 62
     3
 10
15499.9
 20
13502.1
 30
0.0
 11
16090.5
 21
14131.3
 31
0.0
  0
LINE
  5
148
  8
0
  6
CONTINUOUS
 62
     3
 10
15425.9
 20
13598.6
 30
0.0
 11
15868.4
 21
14070.0
 31
0.0
  0
LINE
  5
149
  8
0
  6
CONTINUOUS
 62
     3
 10
15820.3
 20
13492.5
 30
0.0
 11
16015.2
 21
13975.6
 31
0.0
  0
LINE
  5
14A
  8
0
  6
CONTINUOUS
 62
     3
 10
15830.9
 20
12785.4
 30
0.0
 11
15830.9
 21
12335.4
 31
0.0
  0
LINE
  5
14B
  8
0
  6
CONTINUOUS
 62
     3
 10
15852.9
 20
12810.4
 30
0.0
 11
15852.9
 21
12320.4
 31
0.0
  0
LINE
  5
14C
  8
0
  6
CONTINUOUS
 62
     3
 10
15830.9
 20
12335.4
 30
0.0
 11
15542.9
 21
12383.6
 31
0.0
  0
LINE
  5
14D
  8
0
  6
CONTINUOUS
 62
     3
 10
15842.9
 20
12320.4
 30
0.0
 11
15542.9
 21
12368.5
 31
0.0
  0
LINE
  5
14E
  8
0
  6
CONTINUOUS
 62
     3
 10
15852.9
 20
12320.4
 30
0.0
 11
16172.1
 21
12291.7
 31
0.0
  0
LINE
  5
14F
  8
0
  6
CONTINUOUS
 62
     3
 10
15842.9
 20
12320.4
 30
0.0
 11
15852.9
 21
12320.4
 31
0.0
  0
LINE
  5
150
  8
0
  6
CONTINUOUS
 62
     3
 10
15518.779562
 20
13439.784667
 30
0.0
 11
15625.0
 21
13361.7
 31
0.0
  0
LINE
  5
151
  8
0
  6
CONTINUOUS
 62
     3
 10
15638.9
 20
13351.5
 30
0.0
 11
15561.7
 21
13160.2
 31
0.0
  0
LINE
  5
152
  8
0
  6
CONTINUOUS
 62
     3
 10
15543.1
 20
13548.2
 30
0.0
 11
15680.6
 21
13432.4
 31
0.0
  0
LINE
  5
153
  8
0
  6
CONTINUOUS
 62
     3
 10
15349.5
 20
13194.0
 30
0.0
 11
16107.2
 21
13073.4
 31
0.0
  0
LINE
  5
154
  8
0
  6
CONTINUOUS
 62
     3
 10
15333.8
 20
13095.3
 30
0.0
 11
16102.8
 21
12972.8
 31
0.0
  0
LINE
  5
155
  8
0
  6
CONTINUOUS
 62
     3
 10
15827.3
 20
12810.1
 30
0.0
 11
15537.4
 21
13062.9
 31
0.0
  0
LINE
  5
156
  8
0
  6
CONTINUOUS
 62
     3
 10
15830.9
 20
12785.4
 30
0.0
 11
15493.1
 21
12645.8
 31
0.0
  0
LINE
  5
157
  8
0
  6
CONTINUOUS
 62
     3
 10
15333.8
 20
13095.3
 30
0.0
 11
15256.9
 21
13081.6
 31
0.0
  0
LINE
  5
158
  8
0
  6
CONTINUOUS
 62
     3
 10
15404.2
 20
12460.7
 30
0.0
 11
15141.4
 21
13092.2
 31
0.0
  0
LINE
  5
159
  8
0
  6
CONTINUOUS
 62
     3
 10
15429.6
 20
13426.6
 30
0.0
 11
15424.7
 21
13461.9
 31
0.0
  0
LINE
  5
15A
  8
0
  6
CONTINUOUS
 62
     3
 10
15429.6
 20
13426.6
 30
0.0
 11
15431.1
 21
13410.7
 31
0.0
  0
LINE
  5
15B
  8
0
  6
CONTINUOUS
 62
     3
 10
15309.6
 20
13434.1
 30
0.0
 11
15281.1
 21
13487.4
 31
0.0
  0
LINE
  5
15C
  8
0
  6
CONTINUOUS
 62
     3
 10
15499.9
 20
13502.1
 30
0.0
 11
15350.1
 21
13422.0
 31
0.0
  0
LINE
  5
15D
  8
0
  6
CONTINUOUS
 62
     3
 10
15425.9
 20
13598.6
 30
0.0
 11
15293.5
 21
13527.8
 31
0.0
  0
LINE
  5
15E
  8
0
  6
CONTINUOUS
 62
     3
 10
15520.7
 20
13419.3
 30
0.0
 11
15431.1
 21
13410.7
 31
0.0
  0
LINE
  5
15F
  8
0
  6
CONTINUOUS
 62
     3
 10
15518.779562
 20
13439.784667
 30
0.0
 11
15520.7
 21
13419.3
 31
0.0
  0
LINE
  5
160
  8
0
  6
CONTINUOUS
 62
     3
 10
15395.3
 20
13186.8
 30
0.0
 11
15321.8
 21
13250.8
 31
0.0
  0
LINE
  5
161
  8
0
  6
CONTINUOUS
 62
     3
 10
15349.5
 20
13194.0
 30
0.0
 11
15280.6
 21
13230.9
 31
0.0
  0
LINE
  5
162
  8
0
  6
CONTINUOUS
 62
     3
 10
15513.8
 20
13418.7
 30
0.0
 11
15538.4
 21
13164.0
 31
0.0
  0
LINE
  5
163
  8
0
  6
CONTINUOUS
 62
     3
 10
15438.0
 20
13411.4
 30
0.0
 11
15460.6
 21
13176.3
 31
0.0
  0
LINE
  5
164
  8
0
  6
CONTINUOUS
 62
     3
 10
16107.2
 20
13073.4
 30
0.0
 11
16450.5
 21
13098.2
 31
0.0
  0
LINE
  5
165
  8
0
  6
CONTINUOUS
 62
     3
 10
16113.5
 20
13073.8
 30
0.0
 11
15750.2
 21
13367.3
 31
0.0
  0
LINE
  5
166
  8
0
  6
CONTINUOUS
 62
     3
 10
15852.9
 20
12810.4
 30
0.0
 11
16194.7
 21
12842.1
 31
0.0
  0
LINE
  5
167
  8
0
  6
CONTINUOUS
 62
     3
 10
15827.3
 20
12810.1
 30
0.0
 11
15842.9
 21
12810.1
 31
0.0
  0
LINE
  5
168
  8
0
  6
CONTINUOUS
 62
     3
 10
15842.9
 20
12810.4
 30
0.0
 11
15852.9
 21
12810.4
 31
0.0
  0
LINE
  5
169
  8
0
  6
CONTINUOUS
 62
     3
 10
15630.8
 20
12981.4
 30
0.0
 11
15656.1
 21
13044.0
 31
0.0
  0
LINE
  5
16A
  8
0
  6
CONTINUOUS
 62
     3
 10
16271.1
 20
12955.4
 30
0.0
 11
16237.6
 21
12982.5
 31
0.0
  0
LINE
  5
16B
  8
0
  6
CONTINUOUS
 62
     3
 10
16271.3
 20
12955.3
 30
0.0
 11
16372.591815
 21
12873.187701
 31
0.0
  0
LINE
  5
16C
  8
0
  6
CONTINUOUS
 62
     3
 10
16194.7
 20
12842.1
 30
0.0
 11
16768.117324
 21
12893.319624
 31
0.0
  0
LINE
  5
16E
  8
0
  6
CONTINUOUS
 62
     3
 10
16372.591815
 20
12873.187701
 30
0.0
 11
16374.0
 21
12858.1
 31
0.0
  0
LINE
  5
170
  8
0
  6
CONTINUOUS
 62
     3
 10
16198.1
 20
12916.4
 30
0.0
 11
16204.6
 21
12843.0
 31
0.0
  0
LINE
  5
171
  8
0
  6
CONTINUOUS
 62
     3
 10
16139.9
 20
12945.7
 30
0.0
 11
16165.4
 21
12977.3
 31
0.0
  0
LINE
  5
172
  8
0
  6
CONTINUOUS
 62
     3
 10
16199.8
 20
12897.4
 30
0.0
 11
16139.9
 21
12945.7
 31
0.0
  0
LINE
  5
173
  8
0
  6
CONTINUOUS
 62
     3
 10
16144.2
 20
12951.1
 30
0.0
 11
16116.2
 21
12973.8
 31
0.0
  0
LINE
  5
174
  8
0
  6
CONTINUOUS
 62
     3
 10
16102.8
 20
12972.8
 30
0.0
 11
16449.551859
 21
12997.81225
 31
0.0
  0
LINE
  5
177
  8
0
  6
CONTINUOUS
 62
     3
 10
15786.313181
 20
13338.125162
 30
0.0
 11
15844.5353
 21
13482.6454
 31
0.0
  0
LINE
  5
17B
  8
0
  6
CONTINUOUS
 62
     3
 10
15665.2
 20
13445.4
 30
0.0
 11
15703.258112
 21
13539.657258
 31
0.0
  0
LINE
  5
17F
  8
0
  6
CONTINUOUS
 62
     3
 10
15844.5353
 20
13482.6454
 30
0.0
 11
15703.258112
 21
13539.657258
 31
0.0
  0
LINE
  5
180
  8
0
  6
CONTINUOUS
 62
     3
 10
15679.9
 20
13433.0
 30
0.0
 11
15754.6
 21
13372.6
 31
0.0
  0
LINE
  5
181
  8
0
  6
CONTINUOUS
 62
     3
 10
15698.0
 20
13302.6
 30
0.0
 11
15754.6
 21
13372.6
 31
0.0
  0
LINE
  5
182
  8
0
  6
CONTINUOUS
 62
     3
 10
15694.5
 20
13139.1
 30
0.0
 11
15747.8
 21
13271.3
 31
0.0
  0
LINE
  5
183
  8
0
  6
CONTINUOUS
 62
     3
 10
15623.4
 20
13362.9
 30
0.0
 11
15698.0
 21
13302.6
 31
0.0
  0
LINE
  5
184
  8
0
  6
CONTINUOUS
 62
     3
 10
15964.8
 20
13096.0
 30
0.0
 11
15702.4
 21
13308.0
 31
0.0
  0
LINE
  5
185
  8
0
  6
CONTINUOUS
 62
     3
 10
16305.8
 20
14553.1
 30
0.0
 11
16090.6
 21
14131.4
 31
0.0
  0
LINE
  5
186
  8
0
  6
CONTINUOUS
 62
     3
 10
16154.4
 20
14630.4
 30
0.0
 11
15868.4
 21
14070.1
 31
0.0
  0
LINE
  5
187
  8
0
  6
CONTINUOUS
 62
     3
 10
16010.5
 20
13977.5
 30
0.0
 11
16059.2
 21
14098.0
 31
0.0
  0
LINE
  5
188
  8
0
  6
CONTINUOUS
 62
     3
 10
15963.8
 20
13996.4
 30
0.0
 11
16015.2
 21
13975.6
 31
0.0
  0
LINE
  5
18A
  8
0
  6
CONTINUOUS
 62
     3
 10
16230.4
 20
14669.4
 30
0.0
 11
16292.787785
 21
14637.455051
 31
0.0
  0
LINE
  5
18B
  8
0
  6
CONTINUOUS
 62
     3
 10
16154.3
 20
14630.4
 30
0.0
 11
16230.4
 21
14669.4
 31
0.0
  0
LINE
  5
18C
  8
0
  6
CONTINUOUS
 62
     3
 10
16292.787785
 20
14637.455051
 30
0.0
 11
16305.8
 21
14553.1
 31
0.0
  0
LINE
  5
18D
  8
0
  6
CONTINUOUS
 62
     3
 10
17215.0
 20
12921.4
 30
0.0
 11
19134.7
 21
13093.3
 31
0.0
  0
LINE
  5
18E
  8
0
  6
CONTINUOUS
 62
     3
 10
18631.1
 20
12162.0
 30
0.0
 11
16818.0
 21
12943.2
 31
0.0
  0
LINE
  5
18F
  8
0
  6
CONTINUOUS
 62
     3
 10
18593.5
 20
12074.8
 30
0.0
 11
16706.506623
 21
12887.816342
 31
0.0
  0
LINE
  5
190
  8
0
  6
CONTINUOUS
 62
     3
 10
18425.0
 20
12036.3
 30
0.0
 11
18580.8
 21
12080.2
 31
0.0
  0
LINE
  5
191
  8
0
  6
CONTINUOUS
 62
     3
 10
18423.0
 20
12021.4
 30
0.0
 11
18827.8
 21
11969.8
 31
0.0
  0
LINE
  5
192
  8
0
  6
CONTINUOUS
 62
     3
 10
17636.819355
 20
12590.4
 30
0.0
 11
19220.8
 21
12590.4
 31
0.0
  0
LINE
  5
193
  8
0
  6
CONTINUOUS
 62
     3
 10
17868.911009
 20
12490.4
 30
0.0
 11
19220.8
 21
12490.4
 31
0.0
  0
LINE
  5
194
  8
0
  6
CONTINUOUS
 62
     3
 10
17269.635917
 20
12748.606222
 30
0.0
 11
19150.5
 21
12917.0
 31
0.0
  0
LINE
  5
195
  8
0
  6
CONTINUOUS
 62
     3
 10
16660.82895
 20
12458.157994
 30
0.0
 11
18142.9
 21
12268.9
 31
0.0
  0
LINE
  5
196
  8
0
  6
CONTINUOUS
 62
     3
 10
18424.9
 20
12036.3
 30
0.0
 11
18423.0
 21
12021.4
 31
0.0
  0
LINE
  5
197
  8
0
  6
CONTINUOUS
 62
     3
 10
16657.9
 20
12490.4
 30
0.0
 11
17628.8
 21
12490.4
 31
0.0
  0
LINE
  5
198
  8
0
  6
CONTINUOUS
 62
     3
 10
16716.4
 20
13096.1
 30
0.0
 11
17215.0
 21
12921.4
 31
0.0
  0
LINE
  5
199
  8
0
  6
CONTINUOUS
 62
     3
 10
16639.9
 20
12692.2
 30
0.0
 11
17070.9
 21
12730.8
 31
0.0
  0
LINE
  5
19A
  8
0
  6
CONTINUOUS
 62
     3
 10
16649.0
 20
12590.4
 30
0.0
 11
17396.7
 21
12590.4
 31
0.0
  0
LINE
  5
19B
  8
0
  6
CONTINUOUS
 62
     3
 10
16768.117324
 20
12893.319624
 30
0.0
 11
16904.8
 21
13030.1
 31
0.0
  0
LINE
  5
19D
  8
0
  6
CONTINUOUS
 62
     3
 10
16639.9
 20
12692.2
 30
0.0
 11
16660.82895
 21
12458.157994
 31
0.0
  0
LINE
  5
19E
  8
0
  6
CONTINUOUS
 62
     3
 10
16587.3
 20
13029.0
 30
0.0
 11
16559.6
 21
12964.7
 31
0.0
  0
LINE
  5
19F
  8
0
  6
CONTINUOUS
 62
     3
 10
16559.6
 20
12964.7
 30
0.0
 11
16577.3
 21
12957.1
 31
0.0
  0
LINE
  5
1A0
  8
0
  6
CONTINUOUS
 62
     3
 10
16587.3
 20
13029.0
 30
0.0
 11
16630.5
 21
13010.4
 31
0.0
  0
LINE
  5
1A4
  8
0
  6
CONTINUOUS
 62
     3
 10
19220.8
 20
12900.4
 30
0.0
 11
19220.8
 21
11890.4
 31
0.0
  0
LINE
  5
1A5
  8
0
  6
CONTINUOUS
 62
     3
 10
19342.9
 20
12785.4
 30
0.0
 11
19342.9
 21
12179.3
 31
0.0
  0
LINE
  5
1A6
  8
0
  6
CONTINUOUS
 62
     3
 10
19232.9
 20
11890.4
 30
0.0
 11
19622.9
 21
11915.4
 31
0.0
  0
LINE
  5
1A7
  8
0
  6
CONTINUOUS
 62
     3
 10
19220.8
 20
12202.8
 30
0.0
 11
19622.9
 21
12125.4
 31
0.0
  0
LINE
  5
1A8
  8
0
  6
CONTINUOUS
 62
     3
 10
18855.4
 20
12186.2
 30
0.0
 11
19220.8
 21
12191.8
 31
0.0
  0
LINE
  5
1A9
  8
0
  6
CONTINUOUS
 62
     3
 10
18824.1
 20
11941.0
 30
0.0
 11
19220.9
 21
11890.3
 31
0.0
  0
LINE
  5
1AA
  8
0
  6
CONTINUOUS
 62
     3
 10
18597.9
 20
12085.1
 30
0.0
 11
18607.5
 21
12087.8
 31
0.0
  0
LINE
  5
1AB
  8
0
  6
CONTINUOUS
 62
     3
 10
18658.1
 20
12020.0
 30
0.0
 11
18612.2
 21
12039.8
 31
0.0
  0
LINE
  5
1AC
  8
0
  6
CONTINUOUS
 62
     3
 10
18716.7
 20
12156.1
 30
0.0
 11
18658.1
 21
12020.0
 31
0.0
  0
LINE
  5
1AD
  8
0
  6
CONTINUOUS
 62
     3
 10
18670.8
 20
12175.9
 30
0.0
 11
18612.2
 21
12039.8
 31
0.0
  0
LINE
  5
1AE
  8
0
  6
CONTINUOUS
 62
     3
 10
18716.7
 20
12156.1
 30
0.0
 11
18670.8
 21
12175.9
 31
0.0
  0
LINE
  5
1AF
  8
0
  6
CONTINUOUS
 62
     3
 10
18600.4
 20
12090.8
 30
0.0
 11
18628.9
 21
12078.6
 31
0.0
  0
LINE
  5
1B0
  8
0
  6
CONTINUOUS
 62
     3
 10
18624.1
 20
12145.9
 30
0.0
 11
18652.6
 21
12133.7
 31
0.0
  0
LINE
  5
1B1
  8
0
  6
CONTINUOUS
 62
     3
 10
18673.7
 20
12119.4
 30
0.0
 11
18653.9
 21
12073.4
 31
0.0
  0
LINE
  5
1B2
  8
0
  6
CONTINUOUS
 62
     3
 10
18698.3
 20
12113.4
 30
0.0
 11
18851.6
 21
12156.6
 31
0.0
  0
LINE
  5
1B3
  8
0
  6
CONTINUOUS
 62
     3
 10
18593.5
 20
12074.8
 30
0.0
 11
18631.1
 21
12162.0
 31
0.0
  0
LINE
  5
1B4
  8
0
  6
CONTINUOUS
 62
     3
 10
18713.7
 20
11957.1
 30
0.0
 11
18824.3
 21
11943.0
 31
0.0
  0
LINE
  5
1B5
  8
0
  6
CONTINUOUS
 62
     3
 10
18715.0
 20
11967.0
 30
0.0
 11
18713.7
 21
11957.1
 31
0.0
  0
LINE
  5
1B6
  8
0
  6
CONTINUOUS
 62
     3
 10
18855.4
 20
12186.2
 30
0.0
 11
18824.1
 21
11941.0
 31
0.0
  0
LINE
  5
1B7
  8
0
  6
CONTINUOUS
 62
     3
 10
18484.2
 20
12225.3
 30
0.0
 11
18854.4
 21
12178.1
 31
0.0
  0
LINE
  5
1B8
  8
0
  6
CONTINUOUS
 62
     3
 10
19220.8
 20
12179.8
 30
0.0
 11
19220.9
 21
12175.8
 31
0.0
  0
LINE
  5
1B9
  8
0
  6
CONTINUOUS
 62
     3
 10
19220.6
 20
12179.8
 30
0.0
 11
19220.9
 21
12175.8
 31
0.0
  0
LINE
  5
1BA
  8
0
  6
CONTINUOUS
 62
     3
 10
19220.8
 20
11890.4
 30
0.0
 11
19232.8
 21
11890.4
 31
0.0
  0
LINE
  5
1BB
  8
0
  6
CONTINUOUS
 62
     3
 10
19527.5
 20
12078.4
 30
0.0
 11
19615.6
 21
12102.0
 31
0.0
  0
LINE
  5
1BC
  8
0
  6
CONTINUOUS
 62
     3
 10
19527.4
 20
11962.5
 30
0.0
 11
19615.5
 21
11938.9
 31
0.0
  0
LINE
  5
1BD
  8
0
  6
CONTINUOUS
 62
     3
 10
19622.9
 20
12125.4
 30
0.0
 11
19622.9
 21
12111.7
 31
0.0
  0
LINE
  5
1BE
  8
0
  6
CONTINUOUS
 62
     3
 10
19622.9
 20
11929.2
 30
0.0
 11
19622.9
 21
11915.4
 31
0.0
  0
LINE
  5
1BF
  8
0
  6
CONTINUOUS
 62
     3
 10
19622.9
 20
11929.2
 30
0.0
 11
19622.9
 21
11915.4
 31
0.0
  0
LINE
  5
1C0
  8
0
  6
CONTINUOUS
 62
     3
 10
19443.0
 20
12885.4
 30
0.0
 11
19343.0
 21
12785.4
 31
0.0
  0
LINE
  5
1C1
  8
0
  6
CONTINUOUS
 62
     3
 10
19152.0
 20
12900.4
 30
0.0
 11
19542.9
 21
12900.4
 31
0.0
  0
LINE
  5
1C2
  8
0
  6
CONTINUOUS
 62
     3
 10
19133.8
 20
13104.2
 30
0.0
 11
19533.6
 21
13140.0
 31
0.0
  0
LINE
  5
1C3
  8
0
  6
CONTINUOUS
 62
     3
 10
19133.8
 20
13104.2
 30
0.0
 11
19152.0
 21
12900.4
 31
0.0
  0
LINE
  5
1C4
  8
0
  6
CONTINUOUS
 62
     3
 10
18675.8
 20
13061.2
 30
0.0
 11
19133.9
 21
13102.2
 31
0.0
  0
LINE
  5
1C5
  8
0
  6
CONTINUOUS
 62
     3
 10
18732.6
 20
13010.1
 30
0.0
 11
19140.8
 21
12936.2
 31
0.0
  0
LINE
  5
1C6
  8
0
  6
CONTINUOUS
 62
     3
 10
18729.9
 20
13040.0
 30
0.0
 11
19128.3
 21
13075.6
 31
0.0
  0
LINE
  5
1C7
  8
0
  6
CONTINUOUS
 62
     3
 10
18729.9
 20
13040.0
 30
0.0
 11
18732.5
 21
13010.1
 31
0.0
  0
LINE
  5
1C8
  8
0
  6
CONTINUOUS
 62
     3
 10
18675.8
 20
13061.2
 30
0.0
 11
18676.6
 21
13052.3
 31
0.0
  0
LINE
  5
1C9
  8
0
  6
CONTINUOUS
 62
     3
 10
19128.3
 20
13075.6
 30
0.0
 11
19140.8
 21
12936.2
 31
0.0
  0
LINE
  5
1CA
  8
0
  6
CONTINUOUS
 62
     3
 10
19442.9
 20
12900.4
 30
0.0
 11
19442.9
 21
12885.4
 31
0.0
  0
LINE
  5
1CB
  8
0
  6
CONTINUOUS
 62
     3
 10
25521.617623
 20
17958.073201
 30
0.0
 11
29353.4
 21
12131.1
 31
0.0
  0
LINE
  5
1CC
  8
0
  6
CONTINUOUS
 62
     3
 10
25312.636455
 20
17820.796633
 30
0.0
 11
29144.5
 21
11993.7
 31
0.0
  0
LINE
  5
1CD
  8
0
  6
CONTINUOUS
 62
     3
 10
28536.3
 20
18290.7
 30
0.0
 11
25937.5
 21
17902.5
 31
0.0
  0
LINE
  5
1CE
  8
0
  6
CONTINUOUS
 62
     3
 10
28549.6
 20
18201.7
 30
0.0
 11
25950.8
 21
17813.5
 31
0.0
  0
LINE
  5
1CF
  8
0
  6
CONTINUOUS
 62
     3
 10
25673.8
 20
17726.6
 30
0.0
 11
25793.1
 21
17744.4
 31
0.0
  0
LINE
  5
1D0
  8
0
  6
CONTINUOUS
 62
     3
 10
25564.9
 20
17892.3
 30
0.0
 11
25769.2
 21
17922.8
 31
0.0
  0
LINE
  5
1D1
  8
0
  6
CONTINUOUS
 62
     3
 10
25482.4
 20
17453.5
 30
0.0
 11
25532.5
 21
17486.5
 31
0.0
  0
LINE
  5
1D2
  8
0
  6
CONTINUOUS
 62
     3
 10
25521.617623
 20
17958.073201
 30
0.0
 11
25312.636455
 21
17820.796633
 31
0.0
  0
LINE
  5
1D3
  8
0
  6
CONTINUOUS
 62
     3
 10
25414.3
 20
17648.0
 30
0.0
 11
25422.7
 21
17653.5
 31
0.0
  0
LINE
  5
1D4
  8
0
  6
CONTINUOUS
 62
     3
 10
25428.2
 20
17479.9
 30
0.0
 11
25414.3
 21
17648.0
 31
0.0
  0
LINE
  5
1D6
  8
0
  6
CONTINUOUS
 62
     3
 10
25905.6
 20
17902.9
 30
0.0
 11
25795.2
 21
17922.1
 31
0.0
  0
LINE
  5
1D7
  8
0
  6
CONTINUOUS
 62
     3
 10
25920.4
 20
17803.8
 30
0.0
 11
25820.5
 21
17753.2
 31
0.0
  0
LINE
  5
1D8
  8
0
  6
CONTINUOUS
 62
     3
 10
32572.5
 20
18887.8
 30
0.0
 11
29845.8
 21
11783.2
 31
0.0
  0
LINE
  5
1D9
  8
0
  6
CONTINUOUS
 62
     3
 10
32322.4
 20
18983.8
 30
0.0
 11
29597.0
 21
11878.8
 31
0.0
  0
LINE
  5
1DA
  8
0
  6
CONTINUOUS
 62
     3
 10
29845.8
 20
11783.2
 30
0.0
 11
29498.1
 21
11916.7
 31
0.0
  0
LINE
  5
1DB
  8
0
  6
CONTINUOUS
 62
     3
 10
29527.0
 20
11475.8
 30
0.0
 11
29641.3
 21
11411.9
 31
0.0
  0
LINE
  5
1DC
  8
0
  6
CONTINUOUS
 62
     3
 10
29288.9
 20
11856.1
 30
0.0
 11
29527.0
 21
11475.8
 31
0.0
  0
LINE
  5
1DD
  8
0
  6
CONTINUOUS
 62
     3
 10
29295.0
 20
11846.2
 30
0.0
 11
29147.0
 21
11976.3
 31
0.0
  0
LINE
  5
1DE
  8
0
  6
CONTINUOUS
 62
     3
 10
29359.6
 20
12135.2
 30
0.0
 11
29138.2
 21
11989.6
 31
0.0
  0
LINE
  5
1DF
  8
0
  6
CONTINUOUS
 62
     3
 10
29138.2
 20
11989.6
 30
0.0
 11
29147.0
 21
11976.2
 31
0.0
  0
LINE
  5
1E0
  8
0
  6
CONTINUOUS
 62
     3
 10
29498.1
 20
11916.7
 30
0.0
 11
29392.8
 21
11970.0
 31
0.0
  0
LINE
  5
1E1
  8
0
  6
CONTINUOUS
 62
     3
 10
29359.6
 20
12135.2
 30
0.0
 11
29368.4
 21
12121.8
 31
0.0
  0
LINE
  5
1E2
  8
0
  6
CONTINUOUS
 62
     3
 10
29422.5
 20
11955.0
 30
0.0
 11
29368.4
 21
12121.8
 31
0.0
  0
LINE
  5
1E3
  8
0
  6
CONTINUOUS
 62
     3
 10
29845.9
 20
11783.2
 30
0.0
 11
29655.0
 21
11416.0
 31
0.0
  0
LINE
  5
1E4
  8
0
  6
CONTINUOUS
 62
     3
 10
29097.4
 20
12637.8
 30
0.0
 11
29821.6
 21
12713.5
 31
0.0
  0
LINE
  5
1E5
  8
0
  6
CONTINUOUS
 62
     3
 10
29088.0
 20
12713.4
 30
0.0
 11
29846.1
 21
12792.7
 31
0.0
  0
LINE
  5
1E6
  8
0
  6
CONTINUOUS
 62
     3
 10
28977.6
 20
12702.6
 30
0.0
 11
28993.4
 21
12713.0
 31
0.0
  0
LINE
  5
1E7
  8
0
  6
CONTINUOUS
 62
     3
 10
28993.4
 20
12713.0
 30
0.0
 11
29079.5
 21
12714.2
 31
0.0
  0
LINE
  5
1E8
  8
0
  6
CONTINUOUS
 62
     3
 10
29043.5
 20
12602.4
 30
0.0
 11
29102.0
 21
12640.8
 31
0.0
  0
LINE
  5
1E9
  8
0
  6
CONTINUOUS
 62
     3
 10
29976.9
 20
12868.3
 30
0.0
 11
29925.6
 21
12888.0
 31
0.0
  0
LINE
  5
1EA
  8
0
  6
CONTINUOUS
 62
     3
 10
29898.1
 20
12662.9
 30
0.0
 11
29846.7
 21
12682.6
 31
0.0
  0
LINE
  5
1EB
  8
0
  6
CONTINUOUS
 62
     3
 10
29873.9
 20
12865.0
 30
0.0
 11
29823.7
 21
12734.3
 31
0.0
  0
LINE
  5
1EC
  8
0
  6
CONTINUOUS
 62
     3
 10
30511.894268
 20
13518.753357
 30
0.0
 11
30262.755335
 21
13614.395381
 31
0.0
  0
LINE
  5
1EE
  8
0
  6
CONTINUOUS
 62
     3
 10
31942.1
 20
18814.5
 30
0.0
 11
28857.3
 21
18353.8
 31
0.0
  0
LINE
  5
1EF
  8
0
  6
CONTINUOUS
 62
     3
 10
31954.5
 20
18705.2
 30
0.0
 11
28877.2
 21
18245.5
 31
0.0
  0
LINE
  5
1F0
  8
0
  6
CONTINUOUS
 62
     3
 10
28581.5
 20
18201.3
 30
0.0
 11
28691.8
 21
18182.0
 31
0.0
  0
LINE
  5
1F1
  8
0
  6
CONTINUOUS
 62
     3
 10
28566.8
 20
18300.4
 30
0.0
 11
28666.7
 21
18351.0
 31
0.0
  0
LINE
  5
1F2
  8
0
  6
CONTINUOUS
 62
     3
 10
28836.3
 20
18352.9
 30
0.0
 11
28712.9
 21
18360.5
 31
0.0
  0
LINE
  5
1F3
  8
0
  6
CONTINUOUS
 62
     3
 10
28850.1
 20
18237.4
 30
0.0
 11
28745.0
 21
18189.0
 31
0.0
  0
LINE
  5
1F5
  8
0
  6
CONTINUOUS
 62
     3
 10
32326.1
 20
18982.4
 30
0.0
 11
32572.5
 21
18887.8
 31
0.0
  0
LINE
  5
1F6
  8
0
  6
CONTINUOUS
 62
     3
 10
32522.0
 20
18467.2
 30
0.0
 11
32472.5
 21
18565.4
 31
0.0
  0
LINE
  5
1F7
  8
0
  6
CONTINUOUS
 62
     3
 10
32476.6
 20
18532.8
 30
0.0
 11
32498.3
 21
18489.9
 31
0.0
  0
LINE
  5
1F8
  8
0
  6
CONTINUOUS
 62
     3
 10
32539.5
 20
18459.2
 30
0.0
 11
32464.8
 21
18607.2
 31
0.0
  0
LINE
  5
1FA
  8
0
  6
CONTINUOUS
 62
     3
 10
31982.7
 20
18705.3
 30
0.0
 11
32097.4
 21
18689.7
 31
0.0
  0
LINE
  5
1FC
  8
0
  6
CONTINUOUS
 62
     3
 10
32115.7
 20
18689.1
 30
0.0
 11
32212.393159
 21
18697.016919
 31
0.0
  0
LINE
  5
1FD
  8
0
  6
CONTINUOUS
 62
     3
 10
32472.5
 20
18565.4
 30
0.0
 11
32483.2
 21
18570.8
 31
0.0
  0
LINE
  5
1FE
  8
0
  6
CONTINUOUS
 62
     3
 10
32476.7
 20
18532.8
 30
0.0
 11
32478.4
 21
18538.2
 31
0.0
  0
LINE
  5
1FF
  8
0
  6
CONTINUOUS
 62
     3
 10
32484.7
 20
18541.3
 30
0.0
 11
32478.5
 21
18538.2
 31
0.0
  0
LINE
  5
200
  8
0
  6
CONTINUOUS
 62
     3
 10
31962.3
 20
18819.8
 30
0.0
 11
32078.0
 21
18863.2
 31
0.0
  0
LINE
  5
201
  8
0
  6
CONTINUOUS
 62
     3
 10
32090.4
 20
18866.8
 30
0.0
 11
32294.632427
 21
18911.411139
 31
0.0
  0
LINE
  5
202
  8
0
  6
CONTINUOUS
 62
     3
 10
32322.4
 20
18983.9
 30
0.0
 11
32330.8
 21
18980.7
 31
0.0
  0
LINE
  5
203
  8
0
  6
CONTINUOUS
 62
     3
 10
32552.8
 20
18470.4
 30
0.0
 11
32473.040802
 21
18628.652378
 31
0.0
  0
LINE
  5
204
  8
0
  6
CONTINUOUS
 62
     3
 10
32532.7
 20
18472.6
 30
0.0
 11
32522.0
 21
18467.2
 31
0.0
  0
LINE
  5
205
  8
0
  6
CONTINUOUS
 62
     3
 10
32498.3
 20
18490.0
 30
0.0
 11
32503.6
 21
18488.2
 31
0.0
  0
LINE
  5
206
  8
0
  6
CONTINUOUS
 62
     3
 10
32509.9
 20
18491.3
 30
0.0
 11
32503.7
 21
18488.2
 31
0.0
  0
LINE
  5
207
  8
0
  6
CONTINUOUS
 62
     3
 10
32602.8
 20
18495.6
 30
0.0
 11
32500.146387
 21
18699.277803
 31
0.0
  0
LINE
  5
208
  8
0
  6
CONTINUOUS
 62
     3
 10
32549.645933
 20
18476.658069
 30
0.0
 11
32544.8
 21
18461.9
 31
0.0
  0
LINE
  5
209
  8
0
  6
CONTINUOUS
 62
     3
 10
32544.8
 20
18461.9
 30
0.0
 11
32539.5
 21
18459.2
 31
0.0
  0
LINE
  5
20A
  8
0
  6
CONTINUOUS
 62
     3
 10
32619.8
 20
18499.7
 30
0.0
 11
32614.5
 21
18497.0
 31
0.0
  0
LINE
  5
20B
  8
0
  6
CONTINUOUS
 62
     3
 10
32623.8
 20
18518.5
 30
0.0
 11
32613.1
 21
18513.1
 31
0.0
  0
LINE
  5
20C
  8
0
  6
CONTINUOUS
 62
     3
 10
32574.3
 20
18616.7
 30
0.0
 11
32623.8
 21
18518.5
 31
0.0
  0
LINE
  5
20D
  8
0
  6
CONTINUOUS
 62
     3
 10
32563.5
 20
18611.3
 30
0.0
 11
32574.3
 21
18616.7
 31
0.0
  0
LINE
  5
20E
  8
0
  6
CONTINUOUS
 62
     3
 10
32622.8
 20
18620.5
 30
0.0
 11
32655.7
 21
18555.3
 31
0.0
  0
LINE
  5
20F
  8
0
  6
CONTINUOUS
 62
     3
 10
32622.9
 20
18620.5
 30
0.0
 11
32582.6
 21
18600.2
 31
0.0
  0
LINE
  5
210
  8
0
  6
CONTINUOUS
 62
     3
 10
32655.7
 20
18555.3
 30
0.0
 11
32615.5
 21
18535.0
 31
0.0
  0
LINE
  5
211
  8
0
  6
CONTINUOUS
 62
     3
 10
32628.9
 20
18621.9
 30
0.0
 11
32623.5
 21
18619.2
 31
0.0
  0
LINE
  5
212
  8
0
  6
CONTINUOUS
 62
     3
 10
32660.4
 20
18559.4
 30
0.0
 11
32655.0
 21
18556.7
 31
0.0
  0
LINE
  5
213
  8
0
  6
CONTINUOUS
 62
     3
 10
32628.9
 20
18621.9
 30
0.0
 11
32634.2
 21
18620.1
 31
0.0
  0
LINE
  5
214
  8
0
  6
CONTINUOUS
 62
     3
 10
32660.4
 20
18559.4
 30
0.0
 11
32662.1
 21
18564.8
 31
0.0
  0
LINE
  5
215
  8
0
  6
CONTINUOUS
 62
     3
 10
32677.5
 20
18640.8
 30
0.0
 11
32704.5
 21
18587.2
 31
0.0
  0
LINE
  5
216
  8
0
  6
CONTINUOUS
 62
     3
 10
32642.7
 20
18623.3
 30
0.0
 11
32669.7
 21
18569.7
 31
0.0
  0
LINE
  5
217
  8
0
  6
CONTINUOUS
 62
     3
 10
32669.5
 20
18636.8
 30
0.0
 11
32696.5
 21
18583.2
 31
0.0
  0
LINE
  5
218
  8
0
  6
CONTINUOUS
 62
     3
 10
32730.7
 20
18247.6
 30
0.0
 11
32609.6
 21
18487.8
 31
0.0
  0
LINE
  5
219
  8
0
  6
CONTINUOUS
 62
     3
 10
32676.2
 20
18220.2
 30
0.0
 11
32555.1
 21
18460.3
 31
0.0
  0
LINE
  5
21A
  8
0
  6
CONTINUOUS
 62
     3
 10
32730.7
 20
18247.6
 30
0.0
 11
32676.2
 21
18220.2
 31
0.0
  0
LINE
  5
21B
  8
0
  6
CONTINUOUS
 62
     3
 10
32609.5
 20
18493.4
 30
0.0
 11
32602.8
 21
18495.6
 31
0.0
  0
LINE
  5
21C
  8
0
  6
CONTINUOUS
 62
     3
 10
32609.5
 20
18493.4
 30
0.0
 11
32609.6
 21
18487.8
 31
0.0
  0
LINE
  5
21D
  8
0
  6
CONTINUOUS
 62
     3
 10
32552.8
 20
18470.4
 30
0.0
 11
32550.6
 21
18463.7
 31
0.0
  0
LINE
  5
21E
  8
0
  6
CONTINUOUS
 62
     3
 10
32555.1
 20
18460.3
 30
0.0
 11
32550.6
 21
18463.7
 31
0.0
  0
LINE
  5
21F
  8
0
  6
CONTINUOUS
 62
     3
 10
32599.656031
 20
18501.838034
 30
0.0
 11
32614.5
 21
18497.0
 31
0.0
  0
LINE
  5
221
  8
0
  6
CONTINUOUS
 62
     3
 10
32508.4
 20
18720.7
 30
0.0
 11
32619.8
 21
18499.7
 31
0.0
  0
LINE
  5
222
  8
0
  6
CONTINUOUS
 62
     3
 10
32564.1
 20
18891.1
 30
0.0
 11
32572.5
 21
18887.9
 31
0.0
  0
LINE
  5
223
  8
0
  6
CONTINUOUS
 62
     3
 10
31613.6
 20
6750.92
 30
0.0
 11
36063.6
 21
6750.92
 31
0.0
  0
LINE
  5
224
  8
0
  6
CONTINUOUS
 62
     3
 10
31613.6
 20
6650.92
 30
0.0
 11
36063.6
 21
6650.92
 31
0.0
  0
LINE
  5
225
  8
0
  6
CONTINUOUS
 62
     3
 10
31613.6
 20
6750.92
 30
0.0
 11
31613.6
 21
6650.92
 31
0.0
  0
LINE
  5
226
  8
0
  6
CONTINUOUS
 62
     3
 10
31613.6
 20
6750.92
 30
0.0
 11
31509.7
 21
6740.73
 31
0.0
  0
LINE
  5
227
  8
0
  6
CONTINUOUS
 62
     3
 10
31613.6
 20
6650.92
 30
0.0
 11
31509.7
 21
6661.11
 31
0.0
  0
LINE
  5
228
  8
0
  6
CONTINUOUS
 62
     3
 10
36063.6
 20
6750.92
 30
0.0
 11
36063.6
 21
6650.92
 31
0.0
  0
LINE
  5
229
  8
0
  6
CONTINUOUS
 62
     3
 10
26646.5
 20
6691.83
 30
0.0
 11
26646.5
 21
6655.83
 31
0.0
  0
LINE
  5
22A
  8
0
  6
CONTINUOUS
 62
     3
 10
26367.5
 20
6887.83
 30
0.0
 11
26367.5
 21
6631.83
 31
0.0
  0
LINE
  5
22B
  8
0
  6
CONTINUOUS
 62
     3
 10
22889.9
 20
6417.7
 30
0.0
 11
22801.2
 21
6702.41
 31
0.0
  0
LINE
  5
22C
  8
0
  6
CONTINUOUS
 62
     3
 10
22924.9
 20
6420.38
 30
0.0
 11
22819.1
 21
6759.84
 31
0.0
  0
LINE
  5
22D
  8
0
  6
CONTINUOUS
 62
     3
 10
22617.4
 20
7122.88
 30
0.0
 11
22617.4
 21
6396.78
 31
0.0
  0
LINE
  5
22E
  8
0
  6
CONTINUOUS
 62
     3
 10
22651.6
 20
7119.882714
 30
0.0
 11
22651.6
 21
6399.777286
 31
0.0
  0
LINE
  5
22F
  8
0
  6
CONTINUOUS
 62
     3
 10
25167.5
 20
6613.84
 30
0.0
 11
22606.5
 21
6395.94
 31
0.0
  0
LINE
  5
230
  8
0
  6
CONTINUOUS
 62
     3
 10
22889.9
 20
7101.96
 30
0.0
 11
22671.672959
 21
6401.485173
 31
0.0
  0
LINE
  5
231
  8
0
  6
CONTINUOUS
 62
     3
 10
22924.8
 20
7099.27
 30
0.0
 11
22708.2
 21
6403.74
 31
0.0
  0
LINE
  5
232
  8
0
  6
CONTINUOUS
 62
     3
 10
22811.1
 20
6335.42
 30
0.0
 11
22606.5
 21
6319.721712
 31
0.0
  0
LINE
  5
233
  8
0
  6
CONTINUOUS
 62
     3
 10
22566.5
 20
6401.83
 30
0.0
 11
22566.5
 21
6317.83
 31
0.0
  0
LINE
  5
235
  8
0
  6
CONTINUOUS
 62
     3
 10
22606.5
 20
6401.83
 30
0.0
 11
22606.5
 21
6317.83
 31
0.0
  0
LINE
  5
236
  8
0
  6
CONTINUOUS
 62
     3
 10
22566.5
 20
6317.83
 30
0.0
 11
22606.5
 21
6317.83
 31
0.0
  0
LINE
  5
237
  8
0
  6
CONTINUOUS
 62
     3
 10
22566.5
 20
6401.83
 30
0.0
 11
22606.5
 21
6401.83
 31
0.0
  0
LINE
  5
239
  8
0
  6
CONTINUOUS
 62
     3
 10
22566.5
 20
6317.83
 30
0.0
 11
22509.4
 21
6309.91
 31
0.0
  0
LINE
  5
23A
  8
0
  6
CONTINUOUS
 62
     3
 10
22566.5
 20
6401.83
 30
0.0
 11
22509.4
 21
6409.75
 31
0.0
  0
LINE
  5
23B
  8
0
  6
CONTINUOUS
 62
     3
 10
26367.5
 20
6643.73
 30
0.0
 11
22810.7
 21
6339.41
 31
0.0
  0
LINE
  5
23C
  8
0
  6
CONTINUOUS
 62
     3
 10
22944.8
 20
6421.9
 30
0.0
 11
22944.8
 21
6421.9
 31
0.0
  0
LINE
  5
23D
  8
0
  6
CONTINUOUS
 62
     3
 10
22810.7
 20
6339.61
 30
0.0
 11
22811.1
 21
6335.42
 31
0.0
  0
LINE
  5
23E
  8
0
  6
CONTINUOUS
 62
     3
 10
26502.5
 20
6655.83
 30
0.0
 11
26646.5
 21
6655.83
 31
0.0
  0
LINE
  5
23F
  8
0
  6
CONTINUOUS
 62
     3
 10
26620.1
 20
6639.83
 30
0.0
 11
26622.5
 21
6648.78
 31
0.0
  0
LINE
  5
240
  8
0
  6
CONTINUOUS
 62
     3
 10
26622.5
 20
6655.83
 30
0.0
 11
26622.5
 21
6648.79
 31
0.0
  0
LINE
  5
241
  8
0
  6
CONTINUOUS
 62
     3
 10
26502.5
 20
6655.83
 30
0.0
 11
26417.5
 21
6631.82
 31
0.0
  0
LINE
  5
242
  8
0
  6
CONTINUOUS
 62
     3
 10
26582.5
 20
6655.83
 30
0.0
 11
26582.5
 21
6648.79
 31
0.0
  0
LINE
  5
243
  8
0
  6
CONTINUOUS
 62
     3
 10
26584.9
 20
6639.83
 30
0.0
 11
26582.5
 21
6648.79
 31
0.0
  0
LINE
  5
244
  8
0
  6
CONTINUOUS
 62
     3
 10
26417.5
 20
6631.83
 30
0.0
 11
26367.5
 21
6631.83
 31
0.0
  0
LINE
  5
245
  8
0
  6
CONTINUOUS
 62
     3
 10
26584.9
 20
6639.83
 30
0.0
 11
26620.1
 21
6639.83
 31
0.0
  0
LINE
  5
246
  8
0
  6
CONTINUOUS
 62
     3
 10
22606.5
 20
7123.72
 30
0.0
 11
25167.5
 21
6905.82
 31
0.0
  0
LINE
  5
247
  8
0
  6
CONTINUOUS
 62
     3
 10
22783.3
 20
6759.84
 30
0.0
 11
22671.672945
 21
7118.174828
 31
0.0
  0
LINE
  5
248
  8
0
  6
CONTINUOUS
 62
     3
 10
22606.5
 20
7199.941383
 30
0.0
 11
22811.1
 21
7184.24
 31
0.0
  0
LINE
  5
249
  8
0
  6
CONTINUOUS
 62
     3
 10
22801.2
 20
6817.26
 30
0.0
 11
22708.469668
 21
7115.044018
 31
0.0
  0
LINE
  5
24A
  8
0
  6
CONTINUOUS
 62
     3
 10
22566.5
 20
7201.83
 30
0.0
 11
22509.4
 21
7209.75
 31
0.0
  0
LINE
  5
24B
  8
0
  6
CONTINUOUS
 62
     3
 10
22566.5
 20
7201.83
 30
0.0
 11
22606.5
 21
7201.83
 31
0.0
  0
LINE
  5
24E
  8
0
  6
CONTINUOUS
 62
     3
 10
22566.5
 20
7117.83
 30
0.0
 11
22606.5
 21
7117.83
 31
0.0
  0
LINE
  5
24F
  8
0
  6
CONTINUOUS
 62
     3
 10
22566.5
 20
7117.83
 30
0.0
 11
22509.4
 21
7109.91
 31
0.0
  0
LINE
  5
250
  8
0
  6
CONTINUOUS
 62
     3
 10
22606.5
 20
7201.83
 30
0.0
 11
22606.5
 21
7117.83
 31
0.0
  0
LINE
  5
251
  8
0
  6
CONTINUOUS
 62
     3
 10
22566.5
 20
7201.83
 30
0.0
 11
22566.5
 21
7117.83
 31
0.0
  0
LINE
  5
252
  8
0
  6
CONTINUOUS
 62
     3
 10
22810.789732
 20
7180.242322
 30
0.0
 11
26367.5
 21
6875.93
 31
0.0
  0
LINE
  5
253
  8
0
  6
CONTINUOUS
 62
     3
 10
22804.4
 20
7108.52
 30
0.0
 11
22804.1
 21
7104.54
 31
0.0
  0
LINE
  5
254
  8
0
  6
CONTINUOUS
 62
     3
 10
22811.1
 20
7184.24
 30
0.0
 11
22810.789732
 21
7180.242322
 31
0.0
  0
LINE
  5
255
  8
0
  6
CONTINUOUS
 62
     3
 10
26627.7
 20
6899.83
 30
0.0
 11
26628.5
 21
6899.03
 31
0.0
  0
LINE
  5
256
  8
0
  6
CONTINUOUS
 62
     3
 10
26502.5
 20
6863.83
 30
0.0
 11
26646.5
 21
6863.83
 31
0.0
  0
LINE
  5
257
  8
0
  6
CONTINUOUS
 62
     3
 10
26502.5
 20
6823.83
 30
0.0
 11
26642.5
 21
6823.83
 31
0.0
  0
LINE
  5
258
  8
0
  6
CONTINUOUS
 62
     3
 10
26502.5
 20
6695.83
 30
0.0
 11
26642.5
 21
6695.83
 31
0.0
  0
LINE
  5
259
  8
0
  6
CONTINUOUS
 62
     3
 10
26095.7
 20
6904.82
 30
0.0
 11
26095.0
 21
6896.85
 31
0.0
  0
LINE
  5
25A
  8
0
  6
CONTINUOUS
 62
     3
 10
26626.5
 20
6909.43
 30
0.0
 11
26624.1
 21
6911.83
 31
0.0
  0
LINE
  5
25B
  8
0
  6
CONTINUOUS
 62
     3
 10
26626.5
 20
6909.43
 30
0.0
 11
26626.5
 21
6899.83
 31
0.0
  0
LINE
  5
25C
  8
0
  6
CONTINUOUS
 62
     3
 10
26417.5
 20
6887.83
 30
0.0
 11
26502.5
 21
6863.82
 31
0.0
  0
LINE
  5
25D
  8
0
  6
CONTINUOUS
 62
     3
 10
26576.5
 20
6899.03
 30
0.0
 11
26576.5
 21
6863.83
 31
0.0
  0
LINE
  5
25E
  8
0
  6
CONTINUOUS
 62
     3
 10
26542.5
 20
6819.83
 30
0.0
 11
26546.5
 21
6823.83
 31
0.0
  0
LINE
  5
25F
  8
0
  6
CONTINUOUS
 62
     3
 10
26542.5
 20
6819.83
 30
0.0
 11
26542.5
 21
6809.79
 31
0.0
  0
LINE
  5
260
  8
0
  6
CONTINUOUS
 62
     3
 10
26578.5
 20
6909.43
 30
0.0
 11
26580.9
 21
6911.83
 31
0.0
  0
LINE
  5
261
  8
0
  6
CONTINUOUS
 62
     3
 10
26578.5
 20
6909.43
 30
0.0
 11
26578.5
 21
6899.83
 31
0.0
  0
LINE
  5
262
  8
0
  6
CONTINUOUS
 62
     3
 10
26576.5
 20
6899.03
 30
0.0
 11
26577.3
 21
6899.83
 31
0.0
  0
LINE
  5
263
  8
0
  6
CONTINUOUS
 62
     3
 10
26542.5
 20
6699.83
 30
0.0
 11
26546.5
 21
6695.83
 31
0.0
  0
LINE
  5
264
  8
0
  6
CONTINUOUS
 62
     3
 10
26542.5
 20
6709.87
 30
0.0
 11
26542.5
 21
6699.83
 31
0.0
  0
LINE
  5
265
  8
0
  6
CONTINUOUS
 62
     3
 10
26367.5
 20
6887.83
 30
0.0
 11
26417.5
 21
6887.83
 31
0.0
  0
LINE
  5
266
  8
0
  6
CONTINUOUS
 62
     3
 10
26394.5
 20
6887.83
 30
0.0
 11
26460.4
 21
6990.77
 31
0.0
  0
LINE
  5
267
  8
0
  6
CONTINUOUS
 62
     3
 10
26569.3
 20
6863.83
 30
0.0
 11
26551.9
 21
6971.8
 31
0.0
  0
LINE
  5
268
  8
0
  6
CONTINUOUS
 62
     3
 10
26577.3
 20
6899.83
 30
0.0
 11
26627.7
 21
6899.83
 31
0.0
  0
LINE
  5
269
  8
0
  6
CONTINUOUS
 62
     3
 10
26580.9
 20
6911.83
 30
0.0
 11
26624.1
 21
6911.83
 31
0.0
  0
LINE
  5
26A
  8
0
  6
CONTINUOUS
 62
     3
 10
26658.5
 20
6816.23
 30
0.0
 11
26642.5
 21
6816.23
 31
0.0
  0
LINE
  5
26B
  8
0
  6
CONTINUOUS
 62
     3
 10
26658.5
 20
6805.83
 30
0.0
 11
26642.5
 21
6805.83
 31
0.0
  0
LINE
  5
26C
  8
0
  6
CONTINUOUS
 62
     3
 10
26658.5
 20
6703.43
 30
0.0
 11
26642.5
 21
6703.43
 31
0.0
  0
LINE
  5
26D
  8
0
  6
CONTINUOUS
 62
     3
 10
26658.5
 20
6713.83
 30
0.0
 11
26642.5
 21
6713.83
 31
0.0
  0
LINE
  5
26E
  8
0
  6
CONTINUOUS
 62
     3
 10
26628.5
 20
6899.03
 30
0.0
 11
26628.5
 21
6863.83
 31
0.0
  0
LINE
  5
26F
  8
0
  6
CONTINUOUS
 62
     3
 10
26646.5
 20
6827.82
 30
0.0
 11
26638.5
 21
6823.82
 31
0.0
  0
LINE
  5
270
  8
0
  6
CONTINUOUS
 62
     3
 10
26646.5
 20
6863.83
 30
0.0
 11
26646.5
 21
6827.83
 31
0.0
  0
LINE
  5
271
  8
0
  6
CONTINUOUS
 62
     3
 10
26638.5
 20
6695.85
 30
0.0
 11
26646.5
 21
6691.84
 31
0.0
  0
LINE
  5
272
  8
0
  6
CONTINUOUS
 62
     3
 10
26642.5
 20
6823.83
 30
0.0
 11
26642.5
 21
6695.83
 31
0.0
  0
LINE
  5
273
  8
0
  6
CONTINUOUS
 62
     3
 10
26692.9
 20
6781.83
 30
0.0
 11
26692.9
 21
6737.83
 31
0.0
  0
LINE
  5
274
  8
0
  6
CONTINUOUS
 62
     3
 10
26682.5
 20
6781.83
 30
0.0
 11
26682.5
 21
6737.83
 31
0.0
  0
LINE
  5
275
  8
0
  6
CONTINUOUS
 62
     3
 10
13086.1
 20
6441.67
 30
0.0
 11
17468.5
 21
6441.67
 31
0.0
  0
LINE
  5
276
  8
0
  6
CONTINUOUS
 62
     3
 10
12881.3
 20
6513.67
 30
0.0
 11
17673.3
 21
6513.67
 31
0.0
  0
LINE
  5
277
  8
0
  6
CONTINUOUS
 62
     3
 10
17673.3
 20
7241.66
 30
0.0
 11
12881.3
 21
7241.66
 31
0.0
  0
LINE
  5
278
  8
0
  6
CONTINUOUS
 62
     3
 10
17468.5
 20
7313.66
 30
0.0
 11
13086.1
 21
7313.66
 31
0.0
  0
LINE
  5
279
  8
0
  6
CONTINUOUS
 62
     3
 10
13005.1
 20
6513.67
 30
0.0
 11
13269.5
 21
7241.66
 31
0.0
  0
LINE
  5
27A
  8
0
  6
CONTINUOUS
 62
     3
 10
12966.4
 20
6513.67
 30
0.0
 11
13230.7
 21
7241.66
 31
0.0
  0
LINE
  5
27B
  8
0
  6
CONTINUOUS
 62
     3
 10
12936.1
 20
7241.66
 30
0.0
 11
12936.1
 21
6513.67
 31
0.0
  0
LINE
  5
27C
  8
0
  6
CONTINUOUS
 62
     3
 10
12899.7
 20
7241.66
 30
0.0
 11
12899.7
 21
6513.67
 31
0.0
  0
LINE
  5
27D
  8
0
  6
CONTINUOUS
 62
     3
 10
13117.9
 20
6930.93
 30
0.0
 11
13005.1
 21
7241.66
 31
0.0
  0
LINE
  5
27E
  8
0
  6
CONTINUOUS
 62
     3
 10
13098.6
 20
6877.66
 30
0.0
 11
12966.4
 21
7241.66
 31
0.0
  0
LINE
  5
27F
  8
0
  6
CONTINUOUS
 62
     3
 10
13269.5
 20
6513.67
 30
0.0
 11
13137.2
 21
6877.65
 31
0.0
  0
LINE
  5
280
  8
0
  6
CONTINUOUS
 62
     3
 10
13230.8
 20
6513.67
 30
0.0
 11
13117.9
 21
6824.38
 31
0.0
  0
LINE
  5
281
  8
0
  6
CONTINUOUS
 62
     3
 10
12881.3
 20
6437.67
 30
0.0
 11
13086.1
 21
6437.67
 31
0.0
  0
LINE
  5
283
  8
0
  6
CONTINUOUS
 62
     3
 10
12881.3
 20
6519.67
 30
0.0
 11
12881.3
 21
6435.67
 31
0.0
  0
LINE
  5
285
  8
0
  6
CONTINUOUS
 62
     3
 10
13086.1
 20
6441.67
 30
0.0
 11
13086.1
 21
6437.67
 31
0.0
  0
LINE
  5
286
  8
0
  6
CONTINUOUS
 62
     3
 10
12841.3
 20
6519.67
 30
0.0
 11
12841.3
 21
6435.67
 31
0.0
  0
LINE
  5
287
  8
0
  6
CONTINUOUS
 62
     3
 10
12841.3
 20
6519.67
 30
0.0
 11
12784.2
 21
6527.59
 31
0.0
  0
LINE
  5
288
  8
0
  6
CONTINUOUS
 62
     3
 10
12841.3
 20
6435.67
 30
0.0
 11
12784.2
 21
6427.75
 31
0.0
  0
LINE
  5
289
  8
0
  6
CONTINUOUS
 62
     3
 10
12841.3
 20
6435.67
 30
0.0
 11
12881.3
 21
6435.67
 31
0.0
  0
LINE
  5
28A
  8
0
  6
CONTINUOUS
 62
     3
 10
12841.3
 20
6519.67
 30
0.0
 11
12881.3
 21
6519.67
 31
0.0
  0
LINE
  5
28B
  8
0
  6
CONTINUOUS
 62
     3
 10
13086.1
 20
7317.66
 30
0.0
 11
12881.3
 21
7317.66
 31
0.0
  0
LINE
  5
28C
  8
0
  6
CONTINUOUS
 62
     3
 10
12881.3
 20
7319.66
 30
0.0
 11
12881.3
 21
7235.66
 31
0.0
  0
LINE
  5
290
  8
0
  6
CONTINUOUS
 62
     3
 10
13086.1
 20
7317.66
 30
0.0
 11
13086.1
 21
7313.66
 31
0.0
  0
LINE
  5
291
  8
0
  6
CONTINUOUS
 62
     3
 10
12841.3
 20
7319.66
 30
0.0
 11
12841.3
 21
7235.66
 31
0.0
  0
LINE
  5
292
  8
0
  6
CONTINUOUS
 62
     3
 10
12841.3
 20
7319.66
 30
0.0
 11
12784.2
 21
7327.58
 31
0.0
  0
LINE
  5
293
  8
0
  6
CONTINUOUS
 62
     3
 10
12841.3
 20
7235.66
 30
0.0
 11
12784.2
 21
7227.74
 31
0.0
  0
LINE
  5
294
  8
0
  6
CONTINUOUS
 62
     3
 10
12841.3
 20
7235.66
 30
0.0
 11
12881.3
 21
7235.66
 31
0.0
  0
LINE
  5
295
  8
0
  6
CONTINUOUS
 62
     3
 10
12841.3
 20
7319.66
 30
0.0
 11
12881.3
 21
7319.66
 31
0.0
  0
LINE
  5
296
  8
0
  6
CONTINUOUS
 62
     3
 10
17655.0
 20
6513.67
 30
0.0
 11
17655.0
 21
7241.66
 31
0.0
  0
LINE
  5
297
  8
0
  6
CONTINUOUS
 62
     3
 10
17618.6
 20
6513.67
 30
0.0
 11
17618.6
 21
7241.66
 31
0.0
  0
LINE
  5
298
  8
0
  6
CONTINUOUS
 62
     3
 10
17588.6
 20
6513.67
 30
0.0
 11
17332.8
 21
7241.66
 31
0.0
  0
LINE
  5
299
  8
0
  6
CONTINUOUS
 62
     3
 10
17550.1
 20
6513.67
 30
0.0
 11
17294.3
 21
7241.66
 31
0.0
  0
LINE
  5
29A
  8
0
  6
CONTINUOUS
 62
     3
 10
17588.3
 20
7241.66
 30
0.0
 11
17456.2
 21
6877.67
 31
0.0
  0
LINE
  5
29B
  8
0
  6
CONTINUOUS
 62
     3
 10
17441.4
 20
6932.53
 30
0.0
 11
17550.1
 21
7241.66
 31
0.0
  0
LINE
  5
29C
  8
0
  6
CONTINUOUS
 62
     3
 10
17294.3
 20
6513.67
 30
0.0
 11
17422.2
 21
6877.66
 31
0.0
  0
LINE
  5
29D
  8
0
  6
CONTINUOUS
 62
     3
 10
17332.8
 20
6513.67
 30
0.0
 11
17441.4
 21
6822.8
 31
0.0
  0
LINE
  5
29E
  8
0
  6
CONTINUOUS
 62
     3
 10
17468.5
 20
6437.67
 30
0.0
 11
17673.3
 21
6437.67
 31
0.0
  0
LINE
  5
29F
  8
0
  6
CONTINUOUS
 62
     3
 10
17468.5
 20
6437.67
 30
0.0
 11
17468.5
 21
6441.67
 31
0.0
  0
LINE
  5
2A1
  8
0
  6
CONTINUOUS
 62
     3
 10
17713.3
 20
6435.67
 30
0.0
 11
17713.3
 21
6519.67
 31
0.0
  0
LINE
  5
2A3
  8
0
  6
CONTINUOUS
 62
     3
 10
17673.3
 20
6435.67
 30
0.0
 11
17673.3
 21
6519.67
 31
0.0
  0
LINE
  5
2A4
  8
0
  6
CONTINUOUS
 62
     3
 10
17673.3
 20
6519.67
 30
0.0
 11
17713.3
 21
6519.67
 31
0.0
  0
LINE
  5
2A5
  8
0
  6
CONTINUOUS
 62
     3
 10
17673.3
 20
6435.67
 30
0.0
 11
17713.3
 21
6435.67
 31
0.0
  0
LINE
  5
2A6
  8
0
  6
CONTINUOUS
 62
     3
 10
17713.3
 20
6435.67
 30
0.0
 11
17770.4
 21
6427.75
 31
0.0
  0
LINE
  5
2A7
  8
0
  6
CONTINUOUS
 62
     3
 10
17713.3
 20
6519.66
 30
0.0
 11
17770.4
 21
6527.58
 31
0.0
  0
LINE
  5
2A8
  8
0
  6
CONTINUOUS
 62
     3
 10
17673.3
 20
7317.66
 30
0.0
 11
17468.5
 21
7317.66
 31
0.0
  0
LINE
  5
2A9
  8
0
  6
CONTINUOUS
 62
     3
 10
17468.5
 20
7313.66
 30
0.0
 11
17468.5
 21
7317.66
 31
0.0
  0
LINE
  5
2AC
  8
0
  6
CONTINUOUS
 62
     3
 10
17673.3
 20
7319.66
 30
0.0
 11
17713.3
 21
7319.66
 31
0.0
  0
LINE
  5
2AD
  8
0
  6
CONTINUOUS
 62
     3
 10
17673.3
 20
7235.66
 30
0.0
 11
17713.3
 21
7235.66
 31
0.0
  0
LINE
  5
2AE
  8
0
  6
CONTINUOUS
 62
     3
 10
17713.3
 20
7235.66
 30
0.0
 11
17713.3
 21
7319.66
 31
0.0
  0
LINE
  5
2AF
  8
0
  6
CONTINUOUS
 62
     3
 10
17673.3
 20
7235.66
 30
0.0
 11
17673.3
 21
7319.66
 31
0.0
  0
LINE
  5
2B0
  8
0
  6
CONTINUOUS
 62
     3
 10
17713.3
 20
7319.67
 30
0.0
 11
17770.4
 21
7327.59
 31
0.0
  0
LINE
  5
2B1
  8
0
  6
CONTINUOUS
 62
     3
 10
17713.3
 20
7235.66
 30
0.0
 11
17770.4
 21
7227.74
 31
0.0
  0
LINE
  5
2B2
  8
0
  6
CONTINUOUS
 62
     3
 10
8507.958344
 20
7359.77203
 30
0.0
 11
5606.73
 21
7152.03
 31
0.0
  0
LINE
  5
2B3
  8
0
  6
CONTINUOUS
 62
     3
 10
8752.33
 20
6495.869774
 30
0.0
 11
5606.73
 21
6721.11
 31
0.0
  0
LINE
  5
2B4
  8
0
  6
CONTINUOUS
 62
     3
 10
8712.33
 20
6572.65
 30
0.0
 11
6093.21
 21
6737.47
 31
0.0
  0
LINE
  5
2B5
  8
0
  6
CONTINUOUS
 62
     3
 10
8712.33
 20
7300.49
 30
0.0
 11
6093.21
 21
7135.67
 31
0.0
  0
LINE
  5
2B6
  8
0
  6
CONTINUOUS
 62
     3
 10
4999.53
 20
6579.26
 30
0.0
 11
5288.391393
 21
6746.019258
 31
0.0
  0
LINE
  5
2B7
  8
0
  6
CONTINUOUS
 62
     3
 10
5606.73
 20
7164.58
 30
0.0
 11
5029.9
 21
7254.35
 31
0.0
  0
LINE
  5
2B8
  8
0
  6
CONTINUOUS
 62
     3
 10
5606.73
 20
6722.14
 30
0.0
 11
5288.391393
 21
6746.019258
 31
0.0
  0
LINE
  5
2B9
  8
0
  6
CONTINUOUS
 62
     3
 10
5606.73
 20
7152.03
 30
0.0
 11
4449.93
 21
7071.14
 31
0.0
  0
LINE
  5
2BA
  8
0
  6
CONTINUOUS
 62
     3
 10
4449.93
 20
7071.14
 30
0.0
 11
4449.93
 21
6896.57
 31
0.0
  0
LINE
  5
2BC
  8
0
  6
CONTINUOUS
 62
     3
 10
4829.45
 20
7097.68
 30
0.0
 11
5005.86
 21
7247.57
 31
0.0
  0
LINE
  5
2BD
  8
0
  6
CONTINUOUS
 62
     3
 10
5890.17
 20
7003.21
 30
0.0
 11
6173.69
 21
7188.57
 31
0.0
  0
LINE
  5
2BE
  8
0
  6
CONTINUOUS
 62
     3
 10
6173.69
 20
6684.58
 30
0.0
 11
5890.17
 21
6869.95
 31
0.0
  0
LINE
  5
2BF
  8
0
  6
CONTINUOUS
 62
     3
 10
5606.73
 20
7164.58
 30
0.0
 11
5606.73
 21
6722.14
 31
0.0
  0
LINE
  5
2C0
  8
0
  6
CONTINUOUS
 62
     3
 10
6173.69
 20
6684.58
 30
0.0
 11
6173.69
 21
6680.51
 31
0.0
  0
LINE
  5
2C1
  8
0
  6
CONTINUOUS
 62
     3
 10
6173.69
 20
7192.63
 30
0.0
 11
6173.69
 21
7188.57
 31
0.0
  0
LINE
  5
2C2
  8
0
  6
CONTINUOUS
 62
     3
 10
8507.958344
 20
7359.77203
 30
0.0
 11
8507.69
 21
7363.79
 31
0.0
  0
LINE
  5
2C3
  8
0
  6
CONTINUOUS
 62
     3
 10
8442.81
 20
6589.61
 30
0.0
 11
8525.77
 21
6875.34
 31
0.0
  0
LINE
  5
2C4
  8
0
  6
CONTINUOUS
 62
     3
 10
8701.53
 20
7299.81
 30
0.0
 11
8701.53
 21
6577.33
 31
0.0
  0
LINE
  5
2C5
  8
0
  6
CONTINUOUS
 62
     3
 10
8667.37
 20
7297.67
 30
0.0
 11
8667.37
 21
6579.48
 31
0.0
  0
LINE
  5
2C6
  8
0
  6
CONTINUOUS
 62
     3
 10
8407.85
 20
7281.33
 30
0.0
 11
8610.73
 21
6583.05
 31
0.0
  0
LINE
  5
2C7
  8
0
  6
CONTINUOUS
 62
     3
 10
8442.81
 20
7283.53
 30
0.0
 11
8646.97
 21
6580.77
 31
0.0
  0
LINE
  5
2C8
  8
0
  6
CONTINUOUS
 62
     3
 10
8407.85
 20
6591.8
 30
0.0
 11
8508.01
 21
6936.56
 31
0.0
  0
LINE
  5
2C9
  8
0
  6
CONTINUOUS
 62
     3
 10
8752.33
 20
6494.59
 30
0.0
 11
8809.45
 21
6486.66
 31
0.0
  0
LINE
  5
2CA
  8
0
  6
CONTINUOUS
 62
     3
 10
8752.33
 20
6578.58
 30
0.0
 11
8809.45
 21
6586.5
 31
0.0
  0
LINE
  5
2CB
  8
0
  6
CONTINUOUS
 62
     3
 10
8752.33
 20
6494.58
 30
0.0
 11
8752.33
 21
6578.58
 31
0.0
  0
LINE
  5
2D0
  8
0
  6
CONTINUOUS
 62
     3
 10
8707.29
 20
6572.96
 30
0.0
 11
8707.61
 21
6576.95
 31
0.0
  0
LINE
  5
2D2
  8
0
  6
CONTINUOUS
 62
     3
 10
8512.49
 20
6585.22
 30
0.0
 11
8512.73
 21
6589.21
 31
0.0
  0
LINE
  5
2D4
  8
0
  6
CONTINUOUS
 62
     3
 10
8707.53
 20
6576.95
 30
0.0
 11
8512.73
 21
6589.21
 31
0.0
  0
LINE
  5
2D8
  8
0
  6
CONTINUOUS
 62
     3
 10
8543.61
 20
6936.56
 30
0.0
 11
8648.15
 21
7296.46
 31
0.0
  0
LINE
  5
2D9
  8
0
  6
CONTINUOUS
 62
     3
 10
8525.77
 20
6997.78
 30
0.0
 11
8611.91
 21
7294.18
 31
0.0
  0
LINE
  5
2DA
  8
0
  6
CONTINUOUS
 62
     3
 10
8752.33
 20
7378.58
 30
0.0
 11
8809.45
 21
7386.5
 31
0.0
  0
LINE
  5
2DC
  8
0
  6
CONTINUOUS
 62
     3
 10
8507.69
 20
7363.78
 30
0.0
 11
8710.41
 21
7376.54
 31
0.0
  0
LINE
  5
2DD
  8
0
  6
CONTINUOUS
 62
     6
 10
6647.49
 20
1846.02
 30
0.0
 11
6288.91
 21
1846.02
 31
0.0
  0
LINE
  5
2DE
  8
0
  6
CONTINUOUS
 62
     6
 10
6357.4
 20
976.385
 30
0.0
 11
6568.33
 21
976.385
 31
0.0
  0
LINE
  5
2DF
  8
0
  6
CONTINUOUS
 62
     6
 10
6552.2
 20
865.563
 30
0.0
 11
6468.2
 21
865.563
 31
0.0
  0
LINE
  5
2E0
  8
0
  6
CONTINUOUS
 62
     6
 10
6118.17
 20
1558.61
 30
0.0
 11
6288.91
 21
1846.02
 31
0.0
  0
LINE
  5
2E1
  8
0
  6
CONTINUOUS
 62
     6
 10
6118.17
 20
1558.61
 30
0.0
 11
6118.17
 21
1417.43
 31
0.0
  0
LINE
  5
2E2
  8
0
  6
CONTINUOUS
 62
     6
 10
6118.17
 20
1417.43
 30
0.0
 11
6384.19
 21
865.563
 31
0.0
  0
LINE
  5
2E3
  8
0
  6
CONTINUOUS
 62
     6
 10
6384.19
 20
865.563
 30
0.0
 11
6468.2
 21
865.563
 31
0.0
  0
LINE
  5
2E4
  8
0
  6
CONTINUOUS
 62
     6
 10
6818.22
 20
1558.61
 30
0.0
 11
6647.49
 21
1846.02
 31
0.0
  0
LINE
  5
2E5
  8
0
  6
CONTINUOUS
 62
     6
 10
6818.22
 20
1558.61
 30
0.0
 11
6818.22
 21
1417.43
 31
0.0
  0
LINE
  5
2E6
  8
0
  6
CONTINUOUS
 62
     6
 10
6818.22
 20
1417.43
 30
0.0
 11
6552.2
 21
865.563
 31
0.0
  0
LINE
  5
2E7
  8
0
  6
CONTINUOUS
 62
     6
 10
12450.9
 20
1794.62
 30
0.0
 11
12450.9
 21
1142.94
 31
0.0
  0
LINE
  5
2E8
  8
0
  6
CONTINUOUS
 62
     6
 10
12050.9
 20
1794.62
 30
0.0
 11
12050.9
 21
1142.94
 31
0.0
  0
LINE
  5
2E9
  8
0
  6
CONTINUOUS
 62
     6
 10
12125.2
 20
940.653
 30
0.0
 11
12135.6
 21
930.209
 31
0.0
  0
LINE
  5
2EA
  8
0
  6
CONTINUOUS
 62
     6
 10
12258.7
 20
948.723
 30
0.0
 11
12295.0
 21
912.279
 31
0.0
  0
LINE
  5
2EB
  8
0
  6
CONTINUOUS
 62
     6
 10
12090.9
 20
1092.94
 30
0.0
 11
12050.9
 21
1142.94
 31
0.0
  0
LINE
  5
2EC
  8
0
  6
CONTINUOUS
 62
     6
 10
12050.9
 20
1445.94
 30
0.0
 11
12450.9
 21
1445.94
 31
0.0
  0
LINE
  5
2ED
  8
0
  6
CONTINUOUS
 62
     6
 10
12090.9
 20
1092.94
 30
0.0
 11
12410.9
 21
1092.94
 31
0.0
  0
LINE
  5
2EE
  8
0
  6
CONTINUOUS
 62
     6
 10
12410.9
 20
1092.94
 30
0.0
 11
12450.9
 21
1142.94
 31
0.0
  0
LINE
  5
2EF
  8
0
  6
CONTINUOUS
 62
     6
 10
12050.9
 20
1794.62
 30
0.0
 11
12110.3
 21
1895.93
 31
0.0
  0
LINE
  5
2F0
  8
0
  6
CONTINUOUS
 62
     6
 10
12391.4
 20
1895.94
 30
0.0
 11
12450.9
 21
1794.62
 31
0.0
  0
LINE
  5
2F1
  8
0
  6
CONTINUOUS
 62
     6
 10
12110.3
 20
1895.94
 30
0.0
 11
12391.4
 21
1895.94
 31
0.0
  0
LINE
  5
2F2
  8
0
  6
CONTINUOUS
 62
     3
 10
4223.41
 20
12281.9
 30
0.0
 11
4112.55
 21
12637.8
 31
0.0
  0
LINE
  5
2F3
  8
0
  6
CONTINUOUS
 62
     3
 10
4267.08
 20
12285.3
 30
0.0
 11
4134.91
 21
12709.6
 31
0.0
  0
LINE
  5
2F4
  8
0
  6
CONTINUOUS
 62
     3
 10
4337.79
 20
12290.7
 30
0.0
 11
4445.11
 21
12637.4
 31
0.0
  0
LINE
  5
2F5
  8
0
  6
CONTINUOUS
 62
     3
 10
4292.03
 20
13132.0
 30
0.0
 11
4547.48
 21
12306.8
 31
0.0
  0
LINE
  5
2F6
  8
0
  6
CONTINUOUS
 62
     3
 10
4337.82
 20
13128.5
 30
0.0
 11
4591.14
 21
12310.2
 31
0.0
  0
LINE
  5
2F7
  8
0
  6
CONTINUOUS
 62
     3
 10
4616.05
 20
12312.1
 30
0.0
 11
4871.32
 21
13087.5
 31
0.0
  0
LINE
  5
2F8
  8
0
  6
CONTINUOUS
 62
     3
 10
4662.17
 20
12315.6
 30
0.0
 11
4915.17
 21
13084.2
 31
0.0
  0
LINE
  5
2F9
  8
0
  6
CONTINUOUS
 62
     3
 10
4616.07
 20
13107.1
 30
0.0
 11
4746.93
 21
12709.6
 31
0.0
  0
LINE
  5
2FA
  8
0
  6
CONTINUOUS
 62
     3
 10
4662.19
 20
13103.6
 30
0.0
 11
4769.41
 21
12777.9
 31
0.0
  0
LINE
  5
2FB
  8
0
  6
CONTINUOUS
 62
     3
 10
4940.1
 20
12336.9
 30
0.0
 11
5071.06
 21
12709.6
 31
0.0
  0
LINE
  5
2FC
  8
0
  6
CONTINUOUS
 62
     3
 10
4986.61
 20
12340.5
 30
0.0
 11
5093.69
 21
12645.2
 31
0.0
  0
LINE
  5
2FD
  8
0
  6
CONTINUOUS
 62
     3
 10
4940.11
 20
13082.2
 30
0.0
 11
5195.15
 21
12356.5
 31
0.0
  0
LINE
  5
2FE
  8
0
  6
CONTINUOUS
 62
     3
 10
4986.62
 20
13078.7
 30
0.0
 11
5239.22
 21
12359.9
 31
0.0
  0
LINE
  5
2FF
  8
0
  6
CONTINUOUS
 62
     3
 10
5518.91
 20
13037.8
 30
0.0
 11
5264.14
 21
12361.8
 31
0.0
  0
LINE
  5
300
  8
0
  6
CONTINUOUS
 62
     3
 10
5563.26
 20
13034.4
 30
0.0
 11
5311.13
 21
12365.4
 31
0.0
  0
LINE
  5
301
  8
0
  6
CONTINUOUS
 62
     3
 10
5264.14
 20
13057.4
 30
0.0
 11
5395.21
 21
12709.6
 31
0.0
  0
LINE
  5
302
  8
0
  6
CONTINUOUS
 62
     3
 10
5311.13
 20
13053.8
 30
0.0
 11
5418.03
 21
12770.1
 31
0.0
  0
LINE
  5
303
  8
0
  6
CONTINUOUS
 62
     3
 10
5588.19
 20
12386.7
 30
0.0
 11
5719.37
 21
12709.6
 31
0.0
  0
LINE
  5
304
  8
0
  6
CONTINUOUS
 62
     3
 10
5635.76
 20
12390.4
 30
0.0
 11
5742.41
 21
12652.9
 31
0.0
  0
LINE
  5
305
  8
0
  6
CONTINUOUS
 62
     3
 10
5842.6
 20
12406.3
 30
0.0
 11
5588.18
 21
13032.5
 31
0.0
  0
LINE
  5
306
  8
0
  6
CONTINUOUS
 62
     3
 10
5887.29
 20
12409.7
 30
0.0
 11
5635.75
 21
13028.8
 31
0.0
  0
LINE
  5
307
  8
0
  6
CONTINUOUS
 62
     3
 10
6166.19
 20
12988.1
 30
0.0
 11
5912.22
 21
12411.6
 31
0.0
  0
LINE
  5
308
  8
0
  6
CONTINUOUS
 62
     3
 10
6211.32
 20
12984.6
 30
0.0
 11
5960.51
 21
12415.3
 31
0.0
  0
LINE
  5
309
  8
0
  6
CONTINUOUS
 62
     3
 10
5912.24
 20
13007.6
 30
0.0
 11
6043.52
 21
12709.6
 31
0.0
  0
LINE
  5
30A
  8
0
  6
CONTINUOUS
 62
     3
 10
5960.53
 20
13003.9
 30
0.0
 11
6066.85
 21
12762.6
 31
0.0
  0
LINE
  5
30B
  8
0
  6
CONTINUOUS
 62
     3
 10
6236.27
 20
12436.5
 30
0.0
 11
6367.67
 21
12709.6
 31
0.0
  0
LINE
  5
30C
  8
0
  6
CONTINUOUS
 62
     3
 10
6285.47
 20
12440.2
 30
0.0
 11
6391.35
 21
12660.3
 31
0.0
  0
LINE
  5
30D
  8
0
  6
CONTINUOUS
 62
     3
 10
6489.69
 20
12455.9
 30
0.0
 11
6236.26
 21
12982.7
 31
0.0
  0
LINE
  5
30E
  8
0
  6
CONTINUOUS
 62
     3
 10
6535.39
 20
12459.4
 30
0.0
 11
6285.46
 21
12979.0
 31
0.0
  0
LINE
  5
30F
  8
0
  6
CONTINUOUS
 62
     3
 10
6813.01
 20
12938.4
 30
0.0
 11
6560.33
 21
12461.3
 31
0.0
  0
LINE
  5
310
  8
0
  6
CONTINUOUS
 62
     3
 10
6859.44
 20
12934.9
 30
0.0
 11
6610.69
 21
12465.2
 31
0.0
  0
LINE
  5
311
  8
0
  6
CONTINUOUS
 62
     3
 10
6560.31
 20
12957.8
 30
0.0
 11
6691.79
 21
12709.6
 31
0.0
  0
LINE
  5
312
  8
0
  6
CONTINUOUS
 62
     3
 10
6610.68
 20
12954.0
 30
0.0
 11
6715.95
 21
12755.2
 31
0.0
  0
LINE
  5
313
  8
0
  6
CONTINUOUS
 62
     3
 10
6884.38
 20
12486.2
 30
0.0
 11
6989.91
 21
12709.6
 31
0.0
  0
LINE
  5
314
  8
0
  6
CONTINUOUS
 62
     3
 10
6933.38
 20
12490.0
 30
0.0
 11
7013.53
 21
12659.6
 31
0.0
  0
LINE
  5
315
  8
0
  6
CONTINUOUS
 62
     3
 10
7088.04
 20
12501.9
 30
0.0
 11
6884.36
 21
12933.0
 31
0.0
  0
LINE
  5
316
  8
0
  6
CONTINUOUS
 62
     3
 10
7133.62
 20
12505.4
 30
0.0
 11
6933.36
 21
12929.2
 31
0.0
  0
LINE
  5
317
  8
0
  6
CONTINUOUS
 62
     3
 10
7158.55
 20
12911.9
 30
0.0
 11
7266.69
 21
12709.6
 31
0.0
  0
LINE
  5
318
  8
0
  6
CONTINUOUS
 62
     3
 10
7209.03
 20
12908.0
 30
0.0
 11
7290.89
 21
12754.9
 31
0.0
  0
LINE
  5
319
  8
0
  6
CONTINUOUS
 62
     3
 10
4292.0
 20
12287.2
 30
0.0
 11
4422.76
 21
12709.6
 31
0.0
  0
LINE
  5
31A
  8
0
  6
CONTINUOUS
 62
     3
 10
4090.18
 20
12709.6
 30
0.0
 11
3950.432229
 21
13158.261765
 31
0.0
  0
LINE
  5
31B
  8
0
  6
CONTINUOUS
 62
     3
 10
4112.55
 20
12781.4
 30
0.0
 11
3996.257876
 21
13154.743448
 31
0.0
  0
LINE
  5
31C
  8
0
  6
CONTINUOUS
 62
     3
 10
4445.11
 20
12781.8
 30
0.0
 11
4547.45
 21
13112.4
 31
0.0
  0
LINE
  5
31D
  8
0
  6
CONTINUOUS
 62
     3
 10
4467.46
 20
12709.6
 30
0.0
 11
4591.11
 21
13109.0
 31
0.0
  0
LINE
  5
31E
  8
0
  6
CONTINUOUS
 62
     3
 10
4769.41
 20
12641.3
 30
0.0
 11
4871.34
 21
12331.7
 31
0.0
  0
LINE
  5
31F
  8
0
  6
CONTINUOUS
 62
     3
 10
4791.89
 20
12709.6
 30
0.0
 11
4915.19
 21
12335.1
 31
0.0
  0
LINE
  5
320
  8
0
  6
CONTINUOUS
 62
     3
 10
5093.69
 20
12774.0
 30
0.0
 11
5195.14
 21
13062.7
 31
0.0
  0
LINE
  5
321
  8
0
  6
CONTINUOUS
 62
     3
 10
5116.32
 20
12709.6
 30
0.0
 11
5239.21
 21
13059.3
 31
0.0
  0
LINE
  5
322
  8
0
  6
CONTINUOUS
 62
     3
 10
5418.03
 20
12649.1
 30
0.0
 11
5518.91
 21
12381.4
 31
0.0
  0
LINE
  5
323
  8
0
  6
CONTINUOUS
 62
     3
 10
5440.84
 20
12709.6
 30
0.0
 11
5563.26
 21
12384.8
 31
0.0
  0
LINE
  5
324
  8
0
  6
CONTINUOUS
 62
     3
 10
5742.42
 20
12766.3
 30
0.0
 11
5842.62
 21
13012.9
 31
0.0
  0
LINE
  5
325
  8
0
  6
CONTINUOUS
 62
     3
 10
5765.46
 20
12709.6
 30
0.0
 11
5887.3
 21
13009.5
 31
0.0
  0
LINE
  5
326
  8
0
  6
CONTINUOUS
 62
     3
 10
6066.85
 20
12656.6
 30
0.0
 11
6166.21
 21
12431.1
 31
0.0
  0
LINE
  5
327
  8
0
  6
CONTINUOUS
 62
     3
 10
6090.18
 20
12709.6
 30
0.0
 11
6211.35
 21
12434.6
 31
0.0
  0
LINE
  5
328
  8
0
  6
CONTINUOUS
 62
     3
 10
6415.04
 20
12709.6
 30
0.0
 11
6535.39
 21
12959.8
 31
0.0
  0
LINE
  5
329
  8
0
  6
CONTINUOUS
 62
     3
 10
6391.36
 20
12758.8
 30
0.0
 11
6489.7
 21
12963.3
 31
0.0
  0
LINE
  5
32A
  8
0
  6
CONTINUOUS
 62
     3
 10
6715.95
 20
12664.0
 30
0.0
 11
6813.0
 21
12480.7
 31
0.0
  0
LINE
  5
32B
  8
0
  6
CONTINUOUS
 62
     3
 10
6740.11
 20
12709.6
 30
0.0
 11
6859.43
 21
12484.3
 31
0.0
  0
LINE
  5
32C
  8
0
  6
CONTINUOUS
 62
     3
 10
7013.53
 20
12759.6
 30
0.0
 11
7088.07
 21
12917.3
 31
0.0
  0
LINE
  5
32D
  8
0
  6
CONTINUOUS
 62
     3
 10
7037.14
 20
12709.6
 30
0.0
 11
7133.64
 21
12913.8
 31
0.0
  0
LINE
  5
32E
  8
0
  6
CONTINUOUS
 62
     3
 10
7362.48
 20
12798.2
 30
0.0
 11
7209.05
 21
12511.2
 31
0.0
  0
LINE
  5
32F
  8
0
  6
CONTINUOUS
 62
     3
 10
7327.75
 20
12823.8
 30
0.0
 11
7158.56
 21
12507.3
 31
0.0
  0
LINE
  5
330
  8
0
  6
CONTINUOUS
 62
     3
 10
7290.89
 20
12664.3
 30
0.0
 11
7327.73
 21
12595.4
 31
0.0
  0
LINE
  5
331
  8
0
  6
CONTINUOUS
 62
     3
 10
7315.1
 20
12709.6
 30
0.0
 11
7362.47
 21
12621.0
 31
0.0
  0
LINE
  5
332
  8
0
  6
CONTINUOUS
 62
     3
 10
4223.4
 20
13137.3
 30
0.0
 11
3950.42288
 21
12260.94054
 31
0.0
  0
LINE
  5
333
  8
0
  6
CONTINUOUS
 62
     3
 10
4267.08
 20
13133.9
 30
0.0
 11
3996.248522
 21
12264.45883
 31
0.0
  0
LINE
  5
334
  8
0
  6
CONTINUOUS
 62
     3
 10
3925.5
 20
13160.175966
 30
0.0
 11
3925.5
 21
12259.027072
 31
0.0
  0
LINE
  5
335
  8
0
  6
CONTINUOUS
 62
     3
 10
3882.8
 20
13163.454309
 30
0.0
 11
3882.8
 21
12255.748754
 31
0.0
  0
LINE
  5
336
  8
0
  6
CONTINUOUS
 62
     3
 10
13938.8
 20
24641.6
 30
0.0
 11
13619.1
 21
23731.6
 31
0.0
  0
LINE
  5
337
  8
0
  6
CONTINUOUS
 62
     3
 10
13984.1
 20
24641.6
 30
0.0
 11
13664.3
 21
23731.6
 31
0.0
  0
LINE
  5
338
  8
0
  6
CONTINUOUS
 62
     3
 10
13594.1
 20
23731.6
 30
0.0
 11
13274.3
 21
24641.6
 31
0.0
  0
LINE
  5
339
  8
0
  6
CONTINUOUS
 62
     3
 10
13548.8
 20
23731.6
 30
0.0
 11
13229.1
 21
24641.6
 31
0.0
  0
LINE
  5
33A
  8
0
  6
CONTINUOUS
 62
     3
 10
13664.3
 20
24641.6
 30
0.0
 11
13801.5
 21
24251.0
 31
0.0
  0
LINE
  5
33B
  8
0
  6
CONTINUOUS
 62
     3
 10
13619.0
 20
24641.6
 30
0.0
 11
13778.9
 21
24186.6
 31
0.0
  0
LINE
  5
33C
  8
0
  6
CONTINUOUS
 62
     3
 10
13274.3
 20
23731.6
 30
0.0
 11
13411.6
 21
24122.2
 31
0.0
  0
LINE
  5
33D
  8
0
  6
CONTINUOUS
 62
     3
 10
13229.1
 20
23731.6
 30
0.0
 11
13388.9
 21
24186.6
 31
0.0
  0
LINE
  5
33E
  8
0
  6
CONTINUOUS
 62
     3
 10
13824.2
 20
24186.6
 30
0.0
 11
13984.0
 21
23731.6
 31
0.0
  0
LINE
  5
33F
  8
0
  6
CONTINUOUS
 62
     3
 10
13801.5
 20
24122.2
 30
0.0
 11
13938.8
 21
23731.6
 31
0.0
  0
LINE
  5
340
  8
0
  6
CONTINUOUS
 62
     3
 10
13434.2
 20
24186.6
 30
0.0
 11
13594.1
 21
24641.6
 31
0.0
  0
LINE
  5
341
  8
0
  6
CONTINUOUS
 62
     3
 10
13411.6
 20
24251.0
 30
0.0
 11
13548.8
 21
24641.6
 31
0.0
  0
LINE
  5
342
  8
0
  6
CONTINUOUS
 62
     3
 10
21004.0
 20
24641.6
 30
0.0
 11
20684.3
 21
23731.6
 31
0.0
  0
LINE
  5
343
  8
0
  6
CONTINUOUS
 62
     3
 10
20958.8
 20
24641.6
 30
0.0
 11
20639.0
 21
23731.6
 31
0.0
  0
LINE
  5
344
  8
0
  6
CONTINUOUS
 62
     3
 10
20614.0
 20
23731.6
 30
0.0
 11
20294.3
 21
24641.6
 31
0.0
  0
LINE
  5
345
  8
0
  6
CONTINUOUS
 62
     3
 10
20568.8
 20
23731.6
 30
0.0
 11
20249.0
 21
24641.6
 31
0.0
  0
LINE
  5
346
  8
0
  6
CONTINUOUS
 62
     3
 10
20684.3
 20
24641.6
 30
0.0
 11
20821.5
 21
24251.0
 31
0.0
  0
LINE
  5
347
  8
0
  6
CONTINUOUS
 62
     3
 10
20639.0
 20
24641.6
 30
0.0
 11
20798.9
 21
24186.6
 31
0.0
  0
LINE
  5
348
  8
0
  6
CONTINUOUS
 62
     3
 10
20294.3
 20
23731.6
 30
0.0
 11
20431.5
 21
24122.2
 31
0.0
  0
LINE
  5
349
  8
0
  6
CONTINUOUS
 62
     3
 10
20249.0
 20
23731.6
 30
0.0
 11
20408.9
 21
24186.6
 31
0.0
  0
LINE
  5
34A
  8
0
  6
CONTINUOUS
 62
     3
 10
20844.2
 20
24186.6
 30
0.0
 11
21004.0
 21
23731.6
 31
0.0
  0
LINE
  5
34B
  8
0
  6
CONTINUOUS
 62
     3
 10
20821.5
 20
24122.2
 30
0.0
 11
20958.8
 21
23731.6
 31
0.0
  0
LINE
  5
34C
  8
0
  6
CONTINUOUS
 62
     3
 10
20454.2
 20
24186.6
 30
0.0
 11
20614.0
 21
24641.6
 31
0.0
  0
LINE
  5
34D
  8
0
  6
CONTINUOUS
 62
     3
 10
20431.5
 20
24251.0
 30
0.0
 11
20568.8
 21
24641.6
 31
0.0
  0
LINE
  5
34E
  8
0
  6
CONTINUOUS
 62
     3
 10
20224.0
 20
24641.6
 30
0.0
 11
19904.3
 21
23731.6
 31
0.0
  0
LINE
  5
34F
  8
0
  6
CONTINUOUS
 62
     3
 10
20178.8
 20
24641.6
 30
0.0
 11
19859.0
 21
23731.6
 31
0.0
  0
LINE
  5
350
  8
0
  6
CONTINUOUS
 62
     3
 10
19834.0
 20
23731.6
 30
0.0
 11
19514.3
 21
24641.6
 31
0.0
  0
LINE
  5
351
  8
0
  6
CONTINUOUS
 62
     3
 10
19788.8
 20
23731.6
 30
0.0
 11
19469.0
 21
24641.6
 31
0.0
  0
LINE
  5
352
  8
0
  6
CONTINUOUS
 62
     3
 10
19904.3
 20
24641.6
 30
0.0
 11
20041.5
 21
24251.0
 31
0.0
  0
LINE
  5
353
  8
0
  6
CONTINUOUS
 62
     3
 10
19859.0
 20
24641.6
 30
0.0
 11
20018.9
 21
24186.6
 31
0.0
  0
LINE
  5
354
  8
0
  6
CONTINUOUS
 62
     3
 10
19514.3
 20
23731.6
 30
0.0
 11
19651.5
 21
24122.2
 31
0.0
  0
LINE
  5
355
  8
0
  6
CONTINUOUS
 62
     3
 10
19469.0
 20
23731.6
 30
0.0
 11
19628.9
 21
24186.6
 31
0.0
  0
LINE
  5
356
  8
0
  6
CONTINUOUS
 62
     3
 10
20064.2
 20
24186.6
 30
0.0
 11
20224.0
 21
23731.6
 31
0.0
  0
LINE
  5
357
  8
0
  6
CONTINUOUS
 62
     3
 10
20041.5
 20
24122.2
 30
0.0
 11
20178.8
 21
23731.6
 31
0.0
  0
LINE
  5
358
  8
0
  6
CONTINUOUS
 62
     3
 10
19674.2
 20
24186.6
 30
0.0
 11
19834.0
 21
24641.6
 31
0.0
  0
LINE
  5
359
  8
0
  6
CONTINUOUS
 62
     3
 10
19651.5
 20
24251.0
 30
0.0
 11
19788.8
 21
24641.6
 31
0.0
  0
LINE
  5
35A
  8
0
  6
CONTINUOUS
 62
     3
 10
19444.0
 20
24641.6
 30
0.0
 11
19124.3
 21
23731.6
 31
0.0
  0
LINE
  5
35B
  8
0
  6
CONTINUOUS
 62
     3
 10
19398.8
 20
24641.6
 30
0.0
 11
19079.0
 21
23731.6
 31
0.0
  0
LINE
  5
35C
  8
0
  6
CONTINUOUS
 62
     3
 10
19054.0
 20
23731.6
 30
0.0
 11
18734.3
 21
24641.6
 31
0.0
  0
LINE
  5
35D
  8
0
  6
CONTINUOUS
 62
     3
 10
19008.8
 20
23731.6
 30
0.0
 11
18689.0
 21
24641.6
 31
0.0
  0
LINE
  5
35E
  8
0
  6
CONTINUOUS
 62
     3
 10
19124.3
 20
24641.6
 30
0.0
 11
19261.5
 21
24251.0
 31
0.0
  0
LINE
  5
35F
  8
0
  6
CONTINUOUS
 62
     3
 10
19079.0
 20
24641.6
 30
0.0
 11
19238.9
 21
24186.6
 31
0.0
  0
LINE
  5
360
  8
0
  6
CONTINUOUS
 62
     3
 10
18734.3
 20
23731.6
 30
0.0
 11
18871.5
 21
24122.2
 31
0.0
  0
LINE
  5
361
  8
0
  6
CONTINUOUS
 62
     3
 10
18689.0
 20
23731.6
 30
0.0
 11
18848.9
 21
24186.6
 31
0.0
  0
LINE
  5
362
  8
0
  6
CONTINUOUS
 62
     3
 10
19284.2
 20
24186.6
 30
0.0
 11
19444.0
 21
23731.6
 31
0.0
  0
LINE
  5
363
  8
0
  6
CONTINUOUS
 62
     3
 10
19261.5
 20
24122.2
 30
0.0
 11
19398.8
 21
23731.6
 31
0.0
  0
LINE
  5
364
  8
0
  6
CONTINUOUS
 62
     3
 10
18894.2
 20
24186.6
 30
0.0
 11
19054.0
 21
24641.6
 31
0.0
  0
LINE
  5
365
  8
0
  6
CONTINUOUS
 62
     3
 10
18871.5
 20
24251.0
 30
0.0
 11
19008.8
 21
24641.6
 31
0.0
  0
LINE
  5
366
  8
0
  6
CONTINUOUS
 62
     3
 10
18664.0
 20
24641.6
 30
0.0
 11
18344.3
 21
23731.6
 31
0.0
  0
LINE
  5
367
  8
0
  6
CONTINUOUS
 62
     3
 10
18618.8
 20
24641.6
 30
0.0
 11
18299.0
 21
23731.6
 31
0.0
  0
LINE
  5
368
  8
0
  6
CONTINUOUS
 62
     3
 10
18274.0
 20
23731.6
 30
0.0
 11
17954.3
 21
24641.6
 31
0.0
  0
LINE
  5
369
  8
0
  6
CONTINUOUS
 62
     3
 10
18228.8
 20
23731.6
 30
0.0
 11
17909.0
 21
24641.6
 31
0.0
  0
LINE
  5
36A
  8
0
  6
CONTINUOUS
 62
     3
 10
18344.3
 20
24641.6
 30
0.0
 11
18481.5
 21
24251.0
 31
0.0
  0
LINE
  5
36B
  8
0
  6
CONTINUOUS
 62
     3
 10
18299.0
 20
24641.6
 30
0.0
 11
18458.9
 21
24186.6
 31
0.0
  0
LINE
  5
36C
  8
0
  6
CONTINUOUS
 62
     3
 10
17954.3
 20
23731.6
 30
0.0
 11
18091.5
 21
24122.2
 31
0.0
  0
LINE
  5
36D
  8
0
  6
CONTINUOUS
 62
     3
 10
17909.0
 20
23731.6
 30
0.0
 11
18068.9
 21
24186.6
 31
0.0
  0
LINE
  5
36E
  8
0
  6
CONTINUOUS
 62
     3
 10
18504.2
 20
24186.6
 30
0.0
 11
18664.0
 21
23731.6
 31
0.0
  0
LINE
  5
36F
  8
0
  6
CONTINUOUS
 62
     3
 10
18481.5
 20
24122.2
 30
0.0
 11
18618.8
 21
23731.6
 31
0.0
  0
LINE
  5
370
  8
0
  6
CONTINUOUS
 62
     3
 10
18114.2
 20
24186.6
 30
0.0
 11
18274.0
 21
24641.6
 31
0.0
  0
LINE
  5
371
  8
0
  6
CONTINUOUS
 62
     3
 10
18091.5
 20
24251.0
 30
0.0
 11
18228.8
 21
24641.6
 31
0.0
  0
LINE
  5
372
  8
0
  6
CONTINUOUS
 62
     3
 10
17884.0
 20
24641.6
 30
0.0
 11
17564.3
 21
23731.6
 31
0.0
  0
LINE
  5
373
  8
0
  6
CONTINUOUS
 62
     3
 10
17838.8
 20
24641.6
 30
0.0
 11
17519.0
 21
23731.6
 31
0.0
  0
LINE
  5
374
  8
0
  6
CONTINUOUS
 62
     3
 10
17494.0
 20
23731.6
 30
0.0
 11
17174.3
 21
24641.6
 31
0.0
  0
LINE
  5
375
  8
0
  6
CONTINUOUS
 62
     3
 10
17448.8
 20
23731.6
 30
0.0
 11
17129.0
 21
24641.6
 31
0.0
  0
LINE
  5
376
  8
0
  6
CONTINUOUS
 62
     3
 10
17564.3
 20
24641.6
 30
0.0
 11
17701.5
 21
24251.0
 31
0.0
  0
LINE
  5
377
  8
0
  6
CONTINUOUS
 62
     3
 10
17519.0
 20
24641.6
 30
0.0
 11
17678.9
 21
24186.6
 31
0.0
  0
LINE
  5
378
  8
0
  6
CONTINUOUS
 62
     3
 10
17174.3
 20
23731.6
 30
0.0
 11
17311.5
 21
24122.2
 31
0.0
  0
LINE
  5
379
  8
0
  6
CONTINUOUS
 62
     3
 10
17129.0
 20
23731.6
 30
0.0
 11
17288.9
 21
24186.6
 31
0.0
  0
LINE
  5
37A
  8
0
  6
CONTINUOUS
 62
     3
 10
17724.2
 20
24186.6
 30
0.0
 11
17884.0
 21
23731.6
 31
0.0
  0
LINE
  5
37B
  8
0
  6
CONTINUOUS
 62
     3
 10
17701.5
 20
24122.2
 30
0.0
 11
17838.8
 21
23731.6
 31
0.0
  0
LINE
  5
37C
  8
0
  6
CONTINUOUS
 62
     3
 10
17334.2
 20
24186.6
 30
0.0
 11
17494.0
 21
24641.6
 31
0.0
  0
LINE
  5
37D
  8
0
  6
CONTINUOUS
 62
     3
 10
17311.5
 20
24251.0
 30
0.0
 11
17448.8
 21
24641.6
 31
0.0
  0
LINE
  5
37E
  8
0
  6
CONTINUOUS
 62
     3
 10
17104.0
 20
24641.6
 30
0.0
 11
16784.3
 21
23731.6
 31
0.0
  0
LINE
  5
37F
  8
0
  6
CONTINUOUS
 62
     3
 10
17058.8
 20
24641.6
 30
0.0
 11
16739.0
 21
23731.6
 31
0.0
  0
LINE
  5
380
  8
0
  6
CONTINUOUS
 62
     3
 10
16714.0
 20
23731.6
 30
0.0
 11
16394.3
 21
24641.6
 31
0.0
  0
LINE
  5
381
  8
0
  6
CONTINUOUS
 62
     3
 10
16668.8
 20
23731.6
 30
0.0
 11
16349.0
 21
24641.6
 31
0.0
  0
LINE
  5
382
  8
0
  6
CONTINUOUS
 62
     3
 10
16784.3
 20
24641.6
 30
0.0
 11
16921.5
 21
24251.0
 31
0.0
  0
LINE
  5
383
  8
0
  6
CONTINUOUS
 62
     3
 10
16739.0
 20
24641.6
 30
0.0
 11
16898.9
 21
24186.6
 31
0.0
  0
LINE
  5
384
  8
0
  6
CONTINUOUS
 62
     3
 10
16394.3
 20
23731.6
 30
0.0
 11
16531.5
 21
24122.2
 31
0.0
  0
LINE
  5
385
  8
0
  6
CONTINUOUS
 62
     3
 10
16349.0
 20
23731.6
 30
0.0
 11
16508.9
 21
24186.6
 31
0.0
  0
LINE
  5
386
  8
0
  6
CONTINUOUS
 62
     3
 10
16944.2
 20
24186.6
 30
0.0
 11
17104.0
 21
23731.6
 31
0.0
  0
LINE
  5
387
  8
0
  6
CONTINUOUS
 62
     3
 10
16921.5
 20
24122.2
 30
0.0
 11
17058.8
 21
23731.6
 31
0.0
  0
LINE
  5
388
  8
0
  6
CONTINUOUS
 62
     3
 10
16554.2
 20
24186.6
 30
0.0
 11
16714.0
 21
24641.6
 31
0.0
  0
LINE
  5
389
  8
0
  6
CONTINUOUS
 62
     3
 10
16531.5
 20
24251.0
 30
0.0
 11
16668.8
 21
24641.6
 31
0.0
  0
LINE
  5
38A
  8
0
  6
CONTINUOUS
 62
     3
 10
16324.0
 20
24641.6
 30
0.0
 11
16004.3
 21
23731.6
 31
0.0
  0
LINE
  5
38B
  8
0
  6
CONTINUOUS
 62
     3
 10
16278.8
 20
24641.6
 30
0.0
 11
15959.0
 21
23731.6
 31
0.0
  0
LINE
  5
38C
  8
0
  6
CONTINUOUS
 62
     3
 10
15934.0
 20
23731.6
 30
0.0
 11
15614.3
 21
24641.6
 31
0.0
  0
LINE
  5
38D
  8
0
  6
CONTINUOUS
 62
     3
 10
15888.8
 20
23731.6
 30
0.0
 11
15569.0
 21
24641.6
 31
0.0
  0
LINE
  5
38E
  8
0
  6
CONTINUOUS
 62
     3
 10
16004.3
 20
24641.6
 30
0.0
 11
16141.5
 21
24251.0
 31
0.0
  0
LINE
  5
38F
  8
0
  6
CONTINUOUS
 62
     3
 10
15959.0
 20
24641.6
 30
0.0
 11
16118.9
 21
24186.6
 31
0.0
  0
LINE
  5
390
  8
0
  6
CONTINUOUS
 62
     3
 10
15614.3
 20
23731.6
 30
0.0
 11
15751.5
 21
24122.2
 31
0.0
  0
LINE
  5
391
  8
0
  6
CONTINUOUS
 62
     3
 10
15569.0
 20
23731.6
 30
0.0
 11
15728.9
 21
24186.6
 31
0.0
  0
LINE
  5
392
  8
0
  6
CONTINUOUS
 62
     3
 10
16164.2
 20
24186.6
 30
0.0
 11
16324.0
 21
23731.6
 31
0.0
  0
LINE
  5
393
  8
0
  6
CONTINUOUS
 62
     3
 10
16141.5
 20
24122.2
 30
0.0
 11
16278.8
 21
23731.6
 31
0.0
  0
LINE
  5
394
  8
0
  6
CONTINUOUS
 62
     3
 10
15774.2
 20
24186.6
 30
0.0
 11
15934.0
 21
24641.6
 31
0.0
  0
LINE
  5
395
  8
0
  6
CONTINUOUS
 62
     3
 10
15751.5
 20
24251.0
 30
0.0
 11
15888.8
 21
24641.6
 31
0.0
  0
LINE
  5
396
  8
0
  6
CONTINUOUS
 62
     3
 10
15544.0
 20
24641.6
 30
0.0
 11
15224.3
 21
23731.6
 31
0.0
  0
LINE
  5
397
  8
0
  6
CONTINUOUS
 62
     3
 10
15498.8
 20
24641.6
 30
0.0
 11
15179.0
 21
23731.6
 31
0.0
  0
LINE
  5
398
  8
0
  6
CONTINUOUS
 62
     3
 10
15154.0
 20
23731.6
 30
0.0
 11
14834.3
 21
24641.6
 31
0.0
  0
LINE
  5
399
  8
0
  6
CONTINUOUS
 62
     3
 10
15108.8
 20
23731.6
 30
0.0
 11
14789.0
 21
24641.6
 31
0.0
  0
LINE
  5
39A
  8
0
  6
CONTINUOUS
 62
     3
 10
15224.3
 20
24641.6
 30
0.0
 11
15361.5
 21
24251.0
 31
0.0
  0
LINE
  5
39B
  8
0
  6
CONTINUOUS
 62
     3
 10
15179.0
 20
24641.6
 30
0.0
 11
15338.9
 21
24186.6
 31
0.0
  0
LINE
  5
39C
  8
0
  6
CONTINUOUS
 62
     3
 10
14834.3
 20
23731.6
 30
0.0
 11
14971.6
 21
24122.2
 31
0.0
  0
LINE
  5
39D
  8
0
  6
CONTINUOUS
 62
     3
 10
14789.1
 20
23731.6
 30
0.0
 11
14948.9
 21
24186.6
 31
0.0
  0
LINE
  5
39E
  8
0
  6
CONTINUOUS
 62
     3
 10
15384.2
 20
24186.6
 30
0.0
 11
15544.0
 21
23731.6
 31
0.0
  0
LINE
  5
39F
  8
0
  6
CONTINUOUS
 62
     3
 10
15361.5
 20
24122.2
 30
0.0
 11
15498.8
 21
23731.6
 31
0.0
  0
LINE
  5
3A0
  8
0
  6
CONTINUOUS
 62
     3
 10
14994.2
 20
24186.6
 30
0.0
 11
15154.1
 21
24641.6
 31
0.0
  0
LINE
  5
3A1
  8
0
  6
CONTINUOUS
 62
     3
 10
14971.6
 20
24251.0
 30
0.0
 11
15108.8
 21
24641.6
 31
0.0
  0
LINE
  5
3A2
  8
0
  6
CONTINUOUS
 62
     3
 10
14764.0
 20
24641.6
 30
0.0
 11
14444.3
 21
23731.6
 31
0.0
  0
LINE
  5
3A3
  8
0
  6
CONTINUOUS
 62
     3
 10
14718.8
 20
24641.6
 30
0.0
 11
14399.0
 21
23731.6
 31
0.0
  0
LINE
  5
3A4
  8
0
  6
CONTINUOUS
 62
     3
 10
14374.0
 20
23731.6
 30
0.0
 11
14054.3
 21
24641.6
 31
0.0
  0
LINE
  5
3A5
  8
0
  6
CONTINUOUS
 62
     3
 10
14328.8
 20
23731.6
 30
0.0
 11
14009.0
 21
24641.6
 31
0.0
  0
LINE
  5
3A6
  8
0
  6
CONTINUOUS
 62
     3
 10
14444.3
 20
24641.6
 30
0.0
 11
14581.5
 21
24251.0
 31
0.0
  0
LINE
  5
3A7
  8
0
  6
CONTINUOUS
 62
     3
 10
14399.0
 20
24641.6
 30
0.0
 11
14558.9
 21
24186.6
 31
0.0
  0
LINE
  5
3A8
  8
0
  6
CONTINUOUS
 62
     3
 10
14054.3
 20
23731.6
 30
0.0
 11
14191.6
 21
24122.2
 31
0.0
  0
LINE
  5
3A9
  8
0
  6
CONTINUOUS
 62
     3
 10
14009.1
 20
23731.6
 30
0.0
 11
14168.9
 21
24186.6
 31
0.0
  0
LINE
  5
3AA
  8
0
  6
CONTINUOUS
 62
     3
 10
14604.2
 20
24186.6
 30
0.0
 11
14764.0
 21
23731.6
 31
0.0
  0
LINE
  5
3AB
  8
0
  6
CONTINUOUS
 62
     3
 10
14581.5
 20
24122.2
 30
0.0
 11
14718.8
 21
23731.6
 31
0.0
  0
LINE
  5
3AC
  8
0
  6
CONTINUOUS
 62
     3
 10
14214.2
 20
24186.6
 30
0.0
 11
14374.1
 21
24641.6
 31
0.0
  0
LINE
  5
3AD
  8
0
  6
CONTINUOUS
 62
     3
 10
14191.6
 20
24251.0
 30
0.0
 11
14328.8
 21
24641.6
 31
0.0
  0
LINE
  5
3AE
  8
0
  6
CONTINUOUS
 62
     3
 10
21427.9
 20
23731.6
 30
0.0
 11
21427.9
 21
24641.6
 31
0.0
  0
LINE
  5
3AF
  8
0
  6
CONTINUOUS
 62
     3
 10
21475.1
 20
23731.6
 30
0.0
 11
21475.1
 21
24641.6
 31
0.0
  0
LINE
  5
3B0
  8
0
  6
CONTINUOUS
 62
     3
 10
12805.1
 20
24641.6
 30
0.0
 11
12805.1
 21
23731.6
 31
0.0
  0
LINE
  5
3B1
  8
0
  6
CONTINUOUS
 62
     3
 10
12757.9
 20
24641.6
 30
0.0
 11
12757.9
 21
23731.6
 31
0.0
  0
LINE
  5
3B2
  8
0
  6
CONTINUOUS
 62
     3
 10
21074.2
 20
24641.6
 30
0.0
 11
21404.716022
 21
23731.6
 31
0.0
  0
LINE
  5
3B3
  8
0
  6
CONTINUOUS
 62
     3
 10
21028.8
 20
24641.6
 30
0.0
 11
21359.316022
 21
23731.6
 31
0.0
  0
LINE
  5
3B4
  8
0
  6
CONTINUOUS
 62
     3
 10
21404.715556
 20
24641.6
 30
0.0
 11
21239.5
 21
24186.6
 31
0.0
  0
LINE
  5
3B5
  8
0
  6
CONTINUOUS
 62
     3
 10
21359.315484
 20
24641.6
 30
0.0
 11
21216.8
 21
24249.1
 31
0.0
  0
LINE
  5
3B6
  8
0
  6
CONTINUOUS
 62
     3
 10
21194.1
 20
24186.6
 30
0.0
 11
21028.8
 21
23731.6
 31
0.0
  0
LINE
  5
3B7
  8
0
  6
CONTINUOUS
 62
     3
 10
21216.8
 20
24124.0
 30
0.0
 11
21074.2
 21
23731.6
 31
0.0
  0
LINE
  5
3B8
  8
0
  6
CONTINUOUS
 62
     3
 10
12828.383978
 20
23731.6
 30
0.0
 11
13158.9
 21
24641.6
 31
0.0
  0
LINE
  5
3B9
  8
0
  6
CONTINUOUS
 62
     3
 10
12873.783978
 20
23731.6
 30
0.0
 11
13204.3
 21
24641.6
 31
0.0
  0
LINE
  5
3BA
  8
0
  6
CONTINUOUS
 62
     3
 10
12993.6
 20
24186.6
 30
0.0
 11
12828.384444
 21
24641.6
 31
0.0
  0
LINE
  5
3BB
  8
0
  6
CONTINUOUS
 62
     3
 10
13016.3
 20
24249.1
 30
0.0
 11
12873.784516
 21
24641.6
 31
0.0
  0
LINE
  5
3BC
  8
0
  6
CONTINUOUS
 62
     3
 10
13204.3
 20
23731.6
 30
0.0
 11
13039.0
 21
24186.6
 31
0.0
  0
LINE
  5
3BD
  8
0
  6
CONTINUOUS
 62
     3
 10
13158.8
 20
23731.6
 30
0.0
 11
13016.3
 21
24124.1
 31
0.0
  0
LINE
  5
3BE
  8
0
  6
CONTINUOUS
 62
     3
 10
27117.0
 20
24411.3
 30
0.0
 11
26797.3
 21
23501.3
 31
0.0
  0
LINE
  5
3BF
  8
0
  6
CONTINUOUS
 62
     3
 10
27071.8
 20
24411.3
 30
0.0
 11
26752.0
 21
23501.3
 31
0.0
  0
LINE
  5
3C0
  8
0
  6
CONTINUOUS
 62
     3
 10
26727.0
 20
23501.3
 30
0.0
 11
26407.3
 21
24411.3
 31
0.0
  0
LINE
  5
3C1
  8
0
  6
CONTINUOUS
 62
     3
 10
26681.8
 20
23501.3
 30
0.0
 11
26362.0
 21
24411.3
 31
0.0
  0
LINE
  5
3C2
  8
0
  6
CONTINUOUS
 62
     3
 10
26797.3
 20
24411.3
 30
0.0
 11
26934.5
 21
24020.7
 31
0.0
  0
LINE
  5
3C3
  8
0
  6
CONTINUOUS
 62
     3
 10
26752.0
 20
24411.3
 30
0.0
 11
26911.9
 21
23956.3
 31
0.0
  0
LINE
  5
3C4
  8
0
  6
CONTINUOUS
 62
     3
 10
26407.3
 20
23501.3
 30
0.0
 11
26544.6
 21
23891.9
 31
0.0
  0
LINE
  5
3C5
  8
0
  6
CONTINUOUS
 62
     3
 10
26362.1
 20
23501.3
 30
0.0
 11
26521.9
 21
23956.3
 31
0.0
  0
LINE
  5
3C6
  8
0
  6
CONTINUOUS
 62
     3
 10
26957.2
 20
23956.3
 30
0.0
 11
27117.0
 21
23501.3
 31
0.0
  0
LINE
  5
3C7
  8
0
  6
CONTINUOUS
 62
     3
 10
26934.5
 20
23891.9
 30
0.0
 11
27071.8
 21
23501.3
 31
0.0
  0
LINE
  5
3C8
  8
0
  6
CONTINUOUS
 62
     3
 10
26567.2
 20
23956.3
 30
0.0
 11
26727.1
 21
24411.3
 31
0.0
  0
LINE
  5
3C9
  8
0
  6
CONTINUOUS
 62
     3
 10
26544.6
 20
24020.7
 30
0.0
 11
26681.8
 21
24411.3
 31
0.0
  0
LINE
  5
3CA
  8
0
  6
CONTINUOUS
 62
     3
 10
34137.0
 20
24411.3
 30
0.0
 11
33817.3
 21
23501.3
 31
0.0
  0
LINE
  5
3CB
  8
0
  6
CONTINUOUS
 62
     3
 10
34091.8
 20
24411.3
 30
0.0
 11
33772.0
 21
23501.3
 31
0.0
  0
LINE
  5
3CC
  8
0
  6
CONTINUOUS
 62
     3
 10
33747.0
 20
23501.3
 30
0.0
 11
33427.3
 21
24411.3
 31
0.0
  0
LINE
  5
3CD
  8
0
  6
CONTINUOUS
 62
     3
 10
33701.8
 20
23501.3
 30
0.0
 11
33382.0
 21
24411.3
 31
0.0
  0
LINE
  5
3CE
  8
0
  6
CONTINUOUS
 62
     3
 10
33817.3
 20
24411.3
 30
0.0
 11
33954.5
 21
24020.7
 31
0.0
  0
LINE
  5
3CF
  8
0
  6
CONTINUOUS
 62
     3
 10
33772.0
 20
24411.3
 30
0.0
 11
33931.9
 21
23956.3
 31
0.0
  0
LINE
  5
3D0
  8
0
  6
CONTINUOUS
 62
     3
 10
33427.3
 20
23501.3
 30
0.0
 11
33564.5
 21
23891.9
 31
0.0
  0
LINE
  5
3D1
  8
0
  6
CONTINUOUS
 62
     3
 10
33382.0
 20
23501.3
 30
0.0
 11
33541.9
 21
23956.3
 31
0.0
  0
LINE
  5
3D2
  8
0
  6
CONTINUOUS
 62
     3
 10
33977.2
 20
23956.3
 30
0.0
 11
34137.0
 21
23501.3
 31
0.0
  0
LINE
  5
3D3
  8
0
  6
CONTINUOUS
 62
     3
 10
33954.5
 20
23891.9
 30
0.0
 11
34091.8
 21
23501.3
 31
0.0
  0
LINE
  5
3D4
  8
0
  6
CONTINUOUS
 62
     3
 10
33587.2
 20
23956.3
 30
0.0
 11
33747.0
 21
24411.3
 31
0.0
  0
LINE
  5
3D5
  8
0
  6
CONTINUOUS
 62
     3
 10
33564.5
 20
24020.7
 30
0.0
 11
33701.8
 21
24411.3
 31
0.0
  0
LINE
  5
3D6
  8
0
  6
CONTINUOUS
 62
     3
 10
33357.0
 20
24411.3
 30
0.0
 11
33037.3
 21
23501.3
 31
0.0
  0
LINE
  5
3D7
  8
0
  6
CONTINUOUS
 62
     3
 10
33311.8
 20
24411.3
 30
0.0
 11
32992.0
 21
23501.3
 31
0.0
  0
LINE
  5
3D8
  8
0
  6
CONTINUOUS
 62
     3
 10
32967.0
 20
23501.3
 30
0.0
 11
32647.3
 21
24411.3
 31
0.0
  0
LINE
  5
3D9
  8
0
  6
CONTINUOUS
 62
     3
 10
32921.8
 20
23501.3
 30
0.0
 11
32602.0
 21
24411.3
 31
0.0
  0
LINE
  5
3DA
  8
0
  6
CONTINUOUS
 62
     3
 10
33037.3
 20
24411.3
 30
0.0
 11
33174.5
 21
24020.7
 31
0.0
  0
LINE
  5
3DB
  8
0
  6
CONTINUOUS
 62
     3
 10
32992.0
 20
24411.3
 30
0.0
 11
33151.9
 21
23956.3
 31
0.0
  0
LINE
  5
3DC
  8
0
  6
CONTINUOUS
 62
     3
 10
32647.3
 20
23501.3
 30
0.0
 11
32784.5
 21
23891.9
 31
0.0
  0
LINE
  5
3DD
  8
0
  6
CONTINUOUS
 62
     3
 10
32602.0
 20
23501.3
 30
0.0
 11
32761.9
 21
23956.3
 31
0.0
  0
LINE
  5
3DE
  8
0
  6
CONTINUOUS
 62
     3
 10
33197.2
 20
23956.3
 30
0.0
 11
33357.0
 21
23501.3
 31
0.0
  0
LINE
  5
3DF
  8
0
  6
CONTINUOUS
 62
     3
 10
33174.5
 20
23891.9
 30
0.0
 11
33311.8
 21
23501.3
 31
0.0
  0
LINE
  5
3E0
  8
0
  6
CONTINUOUS
 62
     3
 10
32807.2
 20
23956.3
 30
0.0
 11
32967.0
 21
24411.3
 31
0.0
  0
LINE
  5
3E1
  8
0
  6
CONTINUOUS
 62
     3
 10
32784.5
 20
24020.7
 30
0.0
 11
32921.8
 21
24411.3
 31
0.0
  0
LINE
  5
3E2
  8
0
  6
CONTINUOUS
 62
     3
 10
32577.0
 20
24411.3
 30
0.0
 11
32257.3
 21
23501.3
 31
0.0
  0
LINE
  5
3E3
  8
0
  6
CONTINUOUS
 62
     3
 10
32531.8
 20
24411.3
 30
0.0
 11
32212.0
 21
23501.3
 31
0.0
  0
LINE
  5
3E4
  8
0
  6
CONTINUOUS
 62
     3
 10
32187.0
 20
23501.3
 30
0.0
 11
31867.3
 21
24411.3
 31
0.0
  0
LINE
  5
3E5
  8
0
  6
CONTINUOUS
 62
     3
 10
32141.8
 20
23501.3
 30
0.0
 11
31822.0
 21
24411.3
 31
0.0
  0
LINE
  5
3E6
  8
0
  6
CONTINUOUS
 62
     3
 10
32257.3
 20
24411.3
 30
0.0
 11
32394.5
 21
24020.7
 31
0.0
  0
LINE
  5
3E7
  8
0
  6
CONTINUOUS
 62
     3
 10
32212.0
 20
24411.3
 30
0.0
 11
32371.9
 21
23956.3
 31
0.0
  0
LINE
  5
3E8
  8
0
  6
CONTINUOUS
 62
     3
 10
31867.3
 20
23501.3
 30
0.0
 11
32004.5
 21
23891.9
 31
0.0
  0
LINE
  5
3E9
  8
0
  6
CONTINUOUS
 62
     3
 10
31822.0
 20
23501.3
 30
0.0
 11
31981.9
 21
23956.3
 31
0.0
  0
LINE
  5
3EA
  8
0
  6
CONTINUOUS
 62
     3
 10
32417.2
 20
23956.3
 30
0.0
 11
32577.0
 21
23501.3
 31
0.0
  0
LINE
  5
3EB
  8
0
  6
CONTINUOUS
 62
     3
 10
32394.5
 20
23891.9
 30
0.0
 11
32531.8
 21
23501.3
 31
0.0
  0
LINE
  5
3EC
  8
0
  6
CONTINUOUS
 62
     3
 10
32027.2
 20
23956.3
 30
0.0
 11
32187.0
 21
24411.3
 31
0.0
  0
LINE
  5
3ED
  8
0
  6
CONTINUOUS
 62
     3
 10
32004.5
 20
24020.7
 30
0.0
 11
32141.8
 21
24411.3
 31
0.0
  0
LINE
  5
3EE
  8
0
  6
CONTINUOUS
 62
     3
 10
31797.0
 20
24411.3
 30
0.0
 11
31477.3
 21
23501.3
 31
0.0
  0
LINE
  5
3EF
  8
0
  6
CONTINUOUS
 62
     3
 10
31751.8
 20
24411.3
 30
0.0
 11
31432.0
 21
23501.3
 31
0.0
  0
LINE
  5
3F0
  8
0
  6
CONTINUOUS
 62
     3
 10
31407.0
 20
23501.3
 30
0.0
 11
31087.3
 21
24411.3
 31
0.0
  0
LINE
  5
3F1
  8
0
  6
CONTINUOUS
 62
     3
 10
31361.8
 20
23501.3
 30
0.0
 11
31042.0
 21
24411.3
 31
0.0
  0
LINE
  5
3F2
  8
0
  6
CONTINUOUS
 62
     3
 10
31477.3
 20
24411.3
 30
0.0
 11
31614.5
 21
24020.7
 31
0.0
  0
LINE
  5
3F3
  8
0
  6
CONTINUOUS
 62
     3
 10
31432.0
 20
24411.3
 30
0.0
 11
31591.9
 21
23956.3
 31
0.0
  0
LINE
  5
3F4
  8
0
  6
CONTINUOUS
 62
     3
 10
31087.3
 20
23501.3
 30
0.0
 11
31224.5
 21
23891.9
 31
0.0
  0
LINE
  5
3F5
  8
0
  6
CONTINUOUS
 62
     3
 10
31042.0
 20
23501.3
 30
0.0
 11
31201.9
 21
23956.3
 31
0.0
  0
LINE
  5
3F6
  8
0
  6
CONTINUOUS
 62
     3
 10
31637.2
 20
23956.3
 30
0.0
 11
31797.0
 21
23501.3
 31
0.0
  0
LINE
  5
3F7
  8
0
  6
CONTINUOUS
 62
     3
 10
31614.5
 20
23891.9
 30
0.0
 11
31751.8
 21
23501.3
 31
0.0
  0
LINE
  5
3F8
  8
0
  6
CONTINUOUS
 62
     3
 10
31247.2
 20
23956.3
 30
0.0
 11
31407.0
 21
24411.3
 31
0.0
  0
LINE
  5
3F9
  8
0
  6
CONTINUOUS
 62
     3
 10
31224.5
 20
24020.7
 30
0.0
 11
31361.8
 21
24411.3
 31
0.0
  0
LINE
  5
3FA
  8
0
  6
CONTINUOUS
 62
     3
 10
31017.0
 20
24411.3
 30
0.0
 11
30697.3
 21
23501.3
 31
0.0
  0
LINE
  5
3FB
  8
0
  6
CONTINUOUS
 62
     3
 10
30971.8
 20
24411.3
 30
0.0
 11
30652.0
 21
23501.3
 31
0.0
  0
LINE
  5
3FC
  8
0
  6
CONTINUOUS
 62
     3
 10
30627.0
 20
23501.3
 30
0.0
 11
30307.3
 21
24411.3
 31
0.0
  0
LINE
  5
3FD
  8
0
  6
CONTINUOUS
 62
     3
 10
30581.8
 20
23501.3
 30
0.0
 11
30262.0
 21
24411.3
 31
0.0
  0
LINE
  5
3FE
  8
0
  6
CONTINUOUS
 62
     3
 10
30697.3
 20
24411.3
 30
0.0
 11
30834.5
 21
24020.7
 31
0.0
  0
LINE
  5
3FF
  8
0
  6
CONTINUOUS
 62
     3
 10
30652.0
 20
24411.3
 30
0.0
 11
30811.9
 21
23956.3
 31
0.0
  0
LINE
  5
400
  8
0
  6
CONTINUOUS
 62
     3
 10
30307.3
 20
23501.3
 30
0.0
 11
30444.5
 21
23891.9
 31
0.0
  0
LINE
  5
401
  8
0
  6
CONTINUOUS
 62
     3
 10
30262.0
 20
23501.3
 30
0.0
 11
30421.9
 21
23956.3
 31
0.0
  0
LINE
  5
402
  8
0
  6
CONTINUOUS
 62
     3
 10
30857.2
 20
23956.3
 30
0.0
 11
31017.0
 21
23501.3
 31
0.0
  0
LINE
  5
403
  8
0
  6
CONTINUOUS
 62
     3
 10
30834.5
 20
23891.9
 30
0.0
 11
30971.8
 21
23501.3
 31
0.0
  0
LINE
  5
404
  8
0
  6
CONTINUOUS
 62
     3
 10
30467.2
 20
23956.3
 30
0.0
 11
30627.0
 21
24411.3
 31
0.0
  0
LINE
  5
405
  8
0
  6
CONTINUOUS
 62
     3
 10
30444.5
 20
24020.7
 30
0.0
 11
30581.8
 21
24411.3
 31
0.0
  0
LINE
  5
406
  8
0
  6
CONTINUOUS
 62
     3
 10
30237.0
 20
24411.3
 30
0.0
 11
29917.3
 21
23501.3
 31
0.0
  0
LINE
  5
407
  8
0
  6
CONTINUOUS
 62
     3
 10
30191.8
 20
24411.3
 30
0.0
 11
29872.0
 21
23501.3
 31
0.0
  0
LINE
  5
408
  8
0
  6
CONTINUOUS
 62
     3
 10
29847.0
 20
23501.3
 30
0.0
 11
29527.3
 21
24411.3
 31
0.0
  0
LINE
  5
409
  8
0
  6
CONTINUOUS
 62
     3
 10
29801.8
 20
23501.3
 30
0.0
 11
29482.0
 21
24411.3
 31
0.0
  0
LINE
  5
40A
  8
0
  6
CONTINUOUS
 62
     3
 10
29917.3
 20
24411.3
 30
0.0
 11
30054.5
 21
24020.7
 31
0.0
  0
LINE
  5
40B
  8
0
  6
CONTINUOUS
 62
     3
 10
29872.0
 20
24411.3
 30
0.0
 11
30031.9
 21
23956.3
 31
0.0
  0
LINE
  5
40C
  8
0
  6
CONTINUOUS
 62
     3
 10
29527.3
 20
23501.3
 30
0.0
 11
29664.5
 21
23891.9
 31
0.0
  0
LINE
  5
40D
  8
0
  6
CONTINUOUS
 62
     3
 10
29482.0
 20
23501.3
 30
0.0
 11
29641.9
 21
23956.3
 31
0.0
  0
LINE
  5
40E
  8
0
  6
CONTINUOUS
 62
     3
 10
30077.2
 20
23956.3
 30
0.0
 11
30237.0
 21
23501.3
 31
0.0
  0
LINE
  5
40F
  8
0
  6
CONTINUOUS
 62
     3
 10
30054.5
 20
23891.9
 30
0.0
 11
30191.8
 21
23501.3
 31
0.0
  0
LINE
  5
410
  8
0
  6
CONTINUOUS
 62
     3
 10
29687.2
 20
23956.3
 30
0.0
 11
29847.0
 21
24411.3
 31
0.0
  0
LINE
  5
411
  8
0
  6
CONTINUOUS
 62
     3
 10
29664.5
 20
24020.7
 30
0.0
 11
29801.8
 21
24411.3
 31
0.0
  0
LINE
  5
412
  8
0
  6
CONTINUOUS
 62
     3
 10
29457.0
 20
24411.3
 30
0.0
 11
29137.3
 21
23501.3
 31
0.0
  0
LINE
  5
413
  8
0
  6
CONTINUOUS
 62
     3
 10
29411.8
 20
24411.3
 30
0.0
 11
29092.0
 21
23501.3
 31
0.0
  0
LINE
  5
414
  8
0
  6
CONTINUOUS
 62
     3
 10
29067.0
 20
23501.3
 30
0.0
 11
28747.3
 21
24411.3
 31
0.0
  0
LINE
  5
415
  8
0
  6
CONTINUOUS
 62
     3
 10
29021.8
 20
23501.3
 30
0.0
 11
28702.0
 21
24411.3
 31
0.0
  0
LINE
  5
416
  8
0
  6
CONTINUOUS
 62
     3
 10
29137.3
 20
24411.3
 30
0.0
 11
29274.5
 21
24020.7
 31
0.0
  0
LINE
  5
417
  8
0
  6
CONTINUOUS
 62
     3
 10
29092.0
 20
24411.3
 30
0.0
 11
29251.9
 21
23956.3
 31
0.0
  0
LINE
  5
418
  8
0
  6
CONTINUOUS
 62
     3
 10
28747.3
 20
23501.3
 30
0.0
 11
28884.5
 21
23891.9
 31
0.0
  0
LINE
  5
419
  8
0
  6
CONTINUOUS
 62
     3
 10
28702.0
 20
23501.3
 30
0.0
 11
28861.9
 21
23956.3
 31
0.0
  0
LINE
  5
41A
  8
0
  6
CONTINUOUS
 62
     3
 10
29297.2
 20
23956.3
 30
0.0
 11
29457.0
 21
23501.3
 31
0.0
  0
LINE
  5
41B
  8
0
  6
CONTINUOUS
 62
     3
 10
29274.5
 20
23891.9
 30
0.0
 11
29411.8
 21
23501.3
 31
0.0
  0
LINE
  5
41C
  8
0
  6
CONTINUOUS
 62
     3
 10
28907.2
 20
23956.3
 30
0.0
 11
29067.0
 21
24411.3
 31
0.0
  0
LINE
  5
41D
  8
0
  6
CONTINUOUS
 62
     3
 10
28884.5
 20
24020.7
 30
0.0
 11
29021.8
 21
24411.3
 31
0.0
  0
LINE
  5
41E
  8
0
  6
CONTINUOUS
 62
     3
 10
28677.0
 20
24411.3
 30
0.0
 11
28357.3
 21
23501.3
 31
0.0
  0
LINE
  5
41F
  8
0
  6
CONTINUOUS
 62
     3
 10
28631.8
 20
24411.3
 30
0.0
 11
28312.0
 21
23501.3
 31
0.0
  0
LINE
  5
420
  8
0
  6
CONTINUOUS
 62
     3
 10
28287.0
 20
23501.3
 30
0.0
 11
27967.3
 21
24411.3
 31
0.0
  0
LINE
  5
421
  8
0
  6
CONTINUOUS
 62
     3
 10
28241.8
 20
23501.3
 30
0.0
 11
27922.0
 21
24411.3
 31
0.0
  0
LINE
  5
422
  8
0
  6
CONTINUOUS
 62
     3
 10
28357.3
 20
24411.3
 30
0.0
 11
28494.5
 21
24020.7
 31
0.0
  0
LINE
  5
423
  8
0
  6
CONTINUOUS
 62
     3
 10
28312.0
 20
24411.3
 30
0.0
 11
28471.9
 21
23956.3
 31
0.0
  0
LINE
  5
424
  8
0
  6
CONTINUOUS
 62
     3
 10
27967.3
 20
23501.3
 30
0.0
 11
28104.5
 21
23891.9
 31
0.0
  0
LINE
  5
425
  8
0
  6
CONTINUOUS
 62
     3
 10
27922.0
 20
23501.3
 30
0.0
 11
28081.9
 21
23956.3
 31
0.0
  0
LINE
  5
426
  8
0
  6
CONTINUOUS
 62
     3
 10
28517.2
 20
23956.3
 30
0.0
 11
28677.0
 21
23501.3
 31
0.0
  0
LINE
  5
427
  8
0
  6
CONTINUOUS
 62
     3
 10
28494.5
 20
23891.9
 30
0.0
 11
28631.8
 21
23501.3
 31
0.0
  0
LINE
  5
428
  8
0
  6
CONTINUOUS
 62
     3
 10
28127.2
 20
23956.3
 30
0.0
 11
28287.0
 21
24411.3
 31
0.0
  0
LINE
  5
429
  8
0
  6
CONTINUOUS
 62
     3
 10
28104.5
 20
24020.7
 30
0.0
 11
28241.8
 21
24411.3
 31
0.0
  0
LINE
  5
42A
  8
0
  6
CONTINUOUS
 62
     3
 10
27897.0
 20
24411.3
 30
0.0
 11
27577.3
 21
23501.3
 31
0.0
  0
LINE
  5
42B
  8
0
  6
CONTINUOUS
 62
     3
 10
27851.8
 20
24411.3
 30
0.0
 11
27532.0
 21
23501.3
 31
0.0
  0
LINE
  5
42C
  8
0
  6
CONTINUOUS
 62
     3
 10
27507.0
 20
23501.3
 30
0.0
 11
27187.3
 21
24411.3
 31
0.0
  0
LINE
  5
42D
  8
0
  6
CONTINUOUS
 62
     3
 10
27461.8
 20
23501.3
 30
0.0
 11
27142.0
 21
24411.3
 31
0.0
  0
LINE
  5
42E
  8
0
  6
CONTINUOUS
 62
     3
 10
27577.3
 20
24411.3
 30
0.0
 11
27714.5
 21
24020.7
 31
0.0
  0
LINE
  5
42F
  8
0
  6
CONTINUOUS
 62
     3
 10
27532.0
 20
24411.3
 30
0.0
 11
27691.9
 21
23956.3
 31
0.0
  0
LINE
  5
430
  8
0
  6
CONTINUOUS
 62
     3
 10
27187.3
 20
23501.3
 30
0.0
 11
27324.6
 21
23891.9
 31
0.0
  0
LINE
  5
431
  8
0
  6
CONTINUOUS
 62
     3
 10
27142.0
 20
23501.3
 30
0.0
 11
27301.9
 21
23956.3
 31
0.0
  0
LINE
  5
432
  8
0
  6
CONTINUOUS
 62
     3
 10
27737.2
 20
23956.3
 30
0.0
 11
27897.0
 21
23501.3
 31
0.0
  0
LINE
  5
433
  8
0
  6
CONTINUOUS
 62
     3
 10
27714.5
 20
23891.9
 30
0.0
 11
27851.8
 21
23501.3
 31
0.0
  0
LINE
  5
434
  8
0
  6
CONTINUOUS
 62
     3
 10
27347.2
 20
23956.3
 30
0.0
 11
27507.1
 21
24411.3
 31
0.0
  0
LINE
  5
435
  8
0
  6
CONTINUOUS
 62
     3
 10
27324.5
 20
24020.7
 30
0.0
 11
27461.8
 21
24411.3
 31
0.0
  0
LINE
  5
436
  8
0
  6
CONTINUOUS
 62
     3
 10
34560.9
 20
23501.3
 30
0.0
 11
34560.9
 21
24411.3
 31
0.0
  0
LINE
  5
437
  8
0
  6
CONTINUOUS
 62
     3
 10
34608.1
 20
23501.3
 30
0.0
 11
34608.1
 21
24411.3
 31
0.0
  0
LINE
  5
438
  8
0
  6
CONTINUOUS
 62
     3
 10
25938.1
 20
24411.3
 30
0.0
 11
25938.1
 21
23501.3
 31
0.0
  0
LINE
  5
439
  8
0
  6
CONTINUOUS
 62
     3
 10
25890.9
 20
24411.3
 30
0.0
 11
25890.9
 21
23501.3
 31
0.0
  0
LINE
  5
43A
  8
0
  6
CONTINUOUS
 62
     3
 10
34207.2
 20
24411.3
 30
0.0
 11
34537.716022
 21
23501.3
 31
0.0
  0
LINE
  5
43B
  8
0
  6
CONTINUOUS
 62
     3
 10
34161.8
 20
24411.3
 30
0.0
 11
34492.316022
 21
23501.3
 31
0.0
  0
LINE
  5
43C
  8
0
  6
CONTINUOUS
 62
     3
 10
34537.715556
 20
24411.3
 30
0.0
 11
34372.5
 21
23956.3
 31
0.0
  0
LINE
  5
43D
  8
0
  6
CONTINUOUS
 62
     3
 10
34492.315953
 20
24411.3
 30
0.0
 11
34349.8
 21
24018.9
 31
0.0
  0
LINE
  5
43E
  8
0
  6
CONTINUOUS
 62
     3
 10
34327.1
 20
23956.3
 30
0.0
 11
34161.8
 21
23501.3
 31
0.0
  0
LINE
  5
43F
  8
0
  6
CONTINUOUS
 62
     3
 10
34349.8
 20
23893.8
 30
0.0
 11
34207.2
 21
23501.3
 31
0.0
  0
LINE
  5
440
  8
0
  6
CONTINUOUS
 62
     3
 10
25961.38453
 20
23501.3
 30
0.0
 11
26291.8
 21
24411.3
 31
0.0
  0
LINE
  5
441
  8
0
  6
CONTINUOUS
 62
     3
 10
26006.783978
 20
23501.3
 30
0.0
 11
26337.3
 21
24411.3
 31
0.0
  0
LINE
  5
442
  8
0
  6
CONTINUOUS
 62
     3
 10
26126.6
 20
23956.3
 30
0.0
 11
25961.384444
 21
24411.3
 31
0.0
  0
LINE
  5
443
  8
0
  6
CONTINUOUS
 62
     3
 10
26149.3
 20
24018.9
 30
0.0
 11
26006.784047
 21
24411.3
 31
0.0
  0
LINE
  5
444
  8
0
  6
CONTINUOUS
 62
     3
 10
26337.3
 20
23501.3
 30
0.0
 11
26172.0
 21
23956.3
 31
0.0
  0
LINE
  5
445
  8
0
  6
CONTINUOUS
 62
     3
 10
26291.8
 20
23501.3
 30
0.0
 11
26149.3
 21
23893.8
 31
0.0
  0
LINE
  5
446
  8
0
  6
CONTINUOUS
 62
     3
 10
9626.6
 20
24692.146779
 30
0.0
 11
9626.6
 21
23789.1
 31
0.0
  0
LINE
  5
447
  8
0
  6
CONTINUOUS
 62
     3
 10
9583.91
 20
24689.460643
 30
0.0
 11
9583.91
 21
23791.8
 31
0.0
  0
LINE
  5
448
  8
0
  6
CONTINUOUS
 62
     3
 10
9303.19
 20
23804.4
 30
0.0
 11
9406.95
 21
24161.6
 31
0.0
  0
LINE
  5
449
  8
0
  6
CONTINUOUS
 62
     3
 10
9259.52
 20
23807.2
 30
0.0
 11
9384.73
 21
24238.1
 31
0.0
  0
LINE
  5
44A
  8
0
  6
CONTINUOUS
 62
     3
 10
9234.58
 20
24667.5
 30
0.0
 11
8999.55
 21
23823.5
 31
0.0
  0
LINE
  5
44B
  8
0
  6
CONTINUOUS
 62
     3
 10
9189.46
 20
24664.7
 30
0.0
 11
8955.99
 21
23826.3
 31
0.0
  0
LINE
  5
44C
  8
0
  6
CONTINUOUS
 62
     3
 10
9234.57
 20
23808.7
 30
0.0
 11
9115.0
 21
24238.1
 31
0.0
  0
LINE
  5
44D
  8
0
  6
CONTINUOUS
 62
     3
 10
9189.46
 20
23811.6
 30
0.0
 11
9092.85
 21
24158.5
 31
0.0
  0
LINE
  5
44E
  8
0
  6
CONTINUOUS
 62
     3
 10
8931.06
 20
24648.4
 30
0.0
 11
8811.45
 21
24238.1
 31
0.0
  0
LINE
  5
44F
  8
0
  6
CONTINUOUS
 62
     3
 10
8885.75
 20
24645.5
 30
0.0
 11
8789.21
 21
24314.4
 31
0.0
  0
LINE
  5
450
  8
0
  6
CONTINUOUS
 62
     3
 10
8931.04
 20
23827.8
 30
0.0
 11
8696.13
 21
24633.6
 31
0.0
  0
LINE
  5
451
  8
0
  6
CONTINUOUS
 62
     3
 10
8885.73
 20
23830.7
 30
0.0
 11
8652.46
 21
24630.9
 31
0.0
  0
LINE
  5
452
  8
0
  6
CONTINUOUS
 62
     3
 10
8627.51
 20
24629.3
 30
0.0
 11
8392.74
 21
23861.7
 31
0.0
  0
LINE
  5
453
  8
0
  6
CONTINUOUS
 62
     3
 10
8581.98
 20
24626.4
 30
0.0
 11
8348.92
 21
23864.5
 31
0.0
  0
LINE
  5
454
  8
0
  6
CONTINUOUS
 62
     3
 10
8627.51
 20
23846.9
 30
0.0
 11
8507.86
 21
24238.1
 31
0.0
  0
LINE
  5
455
  8
0
  6
CONTINUOUS
 62
     3
 10
8581.98
 20
23849.8
 30
0.0
 11
8485.54
 21
24165.1
 31
0.0
  0
LINE
  5
456
  8
0
  6
CONTINUOUS
 62
     3
 10
8323.97
 20
24610.2
 30
0.0
 11
8204.29
 21
24238.1
 31
0.0
  0
LINE
  5
457
  8
0
  6
CONTINUOUS
 62
     3
 10
8278.18
 20
24607.3
 30
0.0
 11
8181.85
 21
24307.9
 31
0.0
  0
LINE
  5
458
  8
0
  6
CONTINUOUS
 62
     3
 10
8323.97
 20
23866.0
 30
0.0
 11
8089.35
 21
24595.4
 31
0.0
  0
LINE
  5
459
  8
0
  6
CONTINUOUS
 62
     3
 10
8278.2
 20
23868.9
 30
0.0
 11
8045.39
 21
24592.7
 31
0.0
  0
LINE
  5
45A
  8
0
  6
CONTINUOUS
 62
     3
 10
7786.01
 20
23899.9
 30
0.0
 11
8020.45
 21
24591.1
 31
0.0
  0
LINE
  5
45B
  8
0
  6
CONTINUOUS
 62
     3
 10
7741.86
 20
23902.7
 30
0.0
 11
7974.37
 21
24588.2
 31
0.0
  0
LINE
  5
45C
  8
0
  6
CONTINUOUS
 62
     3
 10
7786.01
 20
24576.4
 30
0.0
 11
7878.18
 21
24304.6
 31
0.0
  0
LINE
  5
45D
  8
0
  6
CONTINUOUS
 62
     3
 10
7741.86
 20
24573.6
 30
0.0
 11
7855.63
 21
24238.1
 31
0.0
  0
LINE
  5
45E
  8
0
  6
CONTINUOUS
 62
     3
 10
7482.68
 20
23919.0
 30
0.0
 11
7574.47
 21
24174.9
 31
0.0
  0
LINE
  5
45F
  8
0
  6
CONTINUOUS
 62
     3
 10
7438.32
 20
23921.8
 30
0.0
 11
7551.78
 21
24238.1
 31
0.0
  0
LINE
  5
460
  8
0
  6
CONTINUOUS
 62
     3
 10
7670.5
 20
23907.2
 30
0.0
 11
7438.33
 21
24554.5
 31
0.0
  0
LINE
  5
461
  8
0
  6
CONTINUOUS
 62
     3
 10
7716.91
 20
23904.3
 30
0.0
 11
7482.69
 21
24557.3
 31
0.0
  0
LINE
  5
462
  8
0
  6
CONTINUOUS
 62
     3
 10
7413.36
 20
24552.9
 30
0.0
 11
7179.39
 21
23938.1
 31
0.0
  0
LINE
  5
463
  8
0
  6
CONTINUOUS
 62
     3
 10
7366.55
 20
24550.0
 30
0.0
 11
7134.78
 21
23940.9
 31
0.0
  0
LINE
  5
464
  8
0
  6
CONTINUOUS
 62
     3
 10
7179.41
 20
24538.2
 30
0.0
 11
7270.75
 21
24298.2
 31
0.0
  0
LINE
  5
465
  8
0
  6
CONTINUOUS
 62
     3
 10
7134.79
 20
24535.4
 30
0.0
 11
7247.91
 21
24238.1
 31
0.0
  0
LINE
  5
466
  8
0
  6
CONTINUOUS
 62
     3
 10
6876.18
 20
23957.2
 30
0.0
 11
6966.99
 21
24181.3
 31
0.0
  0
LINE
  5
467
  8
0
  6
CONTINUOUS
 62
     3
 10
6831.25
 20
23960.0
 30
0.0
 11
6943.96
 21
24238.1
 31
0.0
  0
LINE
  5
468
  8
0
  6
CONTINUOUS
 62
     3
 10
7109.83
 20
23942.5
 30
0.0
 11
6876.17
 21
24519.1
 31
0.0
  0
LINE
  5
469
  8
0
  6
CONTINUOUS
 62
     3
 10
7062.55
 20
23945.4
 30
0.0
 11
6831.25
 21
24516.3
 31
0.0
  0
LINE
  5
46A
  8
0
  6
CONTINUOUS
 62
     3
 10
9429.18
 20
24238.1
 30
0.0
 11
9559.866443
 21
24687.947777
 31
0.0
  0
LINE
  5
46B
  8
0
  6
CONTINUOUS
 62
     3
 10
9406.96
 20
24314.6
 30
0.0
 11
9514.601599
 21
24685.099627
 31
0.0
  0
LINE
  5
46C
  8
0
  6
CONTINUOUS
 62
     3
 10
9092.84
 20
24317.7
 30
0.0
 11
8999.55
 21
24652.7
 31
0.0
  0
LINE
  5
46D
  8
0
  6
CONTINUOUS
 62
     3
 10
9070.68
 20
24238.1
 30
0.0
 11
8955.99
 21
24650.0
 31
0.0
  0
LINE
  5
46E
  8
0
  6
CONTINUOUS
 62
     3
 10
8789.21
 20
24161.8
 30
0.0
 11
8696.15
 21
23842.6
 31
0.0
  0
LINE
  5
46F
  8
0
  6
CONTINUOUS
 62
     3
 10
8766.97
 20
24238.1
 30
0.0
 11
8652.48
 21
23845.4
 31
0.0
  0
LINE
  5
470
  8
0
  6
CONTINUOUS
 62
     3
 10
8485.54
 20
24311.1
 30
0.0
 11
8392.73
 21
24614.5
 31
0.0
  0
LINE
  5
471
  8
0
  6
CONTINUOUS
 62
     3
 10
8463.21
 20
24238.1
 30
0.0
 11
8348.93
 21
24611.8
 31
0.0
  0
LINE
  5
472
  8
0
  6
CONTINUOUS
 62
     3
 10
8181.86
 20
24168.4
 30
0.0
 11
8089.35
 21
23880.8
 31
0.0
  0
LINE
  5
473
  8
0
  6
CONTINUOUS
 62
     3
 10
8159.43
 20
24238.1
 30
0.0
 11
8045.38
 21
23883.6
 31
0.0
  0
LINE
  5
474
  8
0
  6
CONTINUOUS
 62
     3
 10
7900.72
 20
24238.1
 30
0.0
 11
8020.44
 21
23885.2
 31
0.0
  0
LINE
  5
475
  8
0
  6
CONTINUOUS
 62
     3
 10
7878.18
 20
24171.7
 30
0.0
 11
7974.37
 21
23888.1
 31
0.0
  0
LINE
  5
476
  8
0
  6
CONTINUOUS
 62
     3
 10
7597.15
 20
24238.1
 30
0.0
 11
7716.9
 21
24572.0
 31
0.0
  0
LINE
  5
477
  8
0
  6
CONTINUOUS
 62
     3
 10
7574.46
 20
24301.4
 30
0.0
 11
7670.49
 21
24569.1
 31
0.0
  0
LINE
  5
478
  8
0
  6
CONTINUOUS
 62
     3
 10
7293.6
 20
24238.1
 30
0.0
 11
7413.38
 21
23923.4
 31
0.0
  0
LINE
  5
479
  8
0
  6
CONTINUOUS
 62
     3
 10
7270.75
 20
24178.1
 30
0.0
 11
7366.57
 21
23926.3
 31
0.0
  0
LINE
  5
47A
  8
0
  6
CONTINUOUS
 62
     3
 10
6990.03
 20
24238.1
 30
0.0
 11
7109.83
 21
24533.8
 31
0.0
  0
LINE
  5
47B
  8
0
  6
CONTINUOUS
 62
     3
 10
6966.99
 20
24295.0
 30
0.0
 11
7062.56
 21
24530.8
 31
0.0
  0
LINE
  5
47C
  8
0
  6
CONTINUOUS
 62
     3
 10
6806.3
 20
24514.7
 30
0.0
 11
6573.02
 21
23976.2
 31
0.0
  0
LINE
  5
47D
  8
0
  6
CONTINUOUS
 62
     3
 10
6758.46
 20
24511.7
 30
0.0
 11
6527.72
 21
23979.1
 31
0.0
  0
LINE
  5
47E
  8
0
  6
CONTINUOUS
 62
     3
 10
6573.02
 20
24500.0
 30
0.0
 11
6663.21
 21
24291.8
 31
0.0
  0
LINE
  5
47F
  8
0
  6
CONTINUOUS
 62
     3
 10
6527.71
 20
24497.2
 30
0.0
 11
6639.94
 21
24238.1
 31
0.0
  0
LINE
  5
480
  8
0
  6
CONTINUOUS
 62
     3
 10
6502.77
 20
23980.7
 30
0.0
 11
6290.25
 21
24437.3
 31
0.0
  0
LINE
  5
481
  8
0
  6
CONTINUOUS
 62
     3
 10
6686.48
 20
24238.1
 30
0.0
 11
6806.3
 21
23961.6
 31
0.0
  0
LINE
  5
482
  8
0
  6
CONTINUOUS
 62
     3
 10
6663.21
 20
24184.4
 30
0.0
 11
6758.46
 21
23964.6
 31
0.0
  0
LINE
  5
483
  8
0
  6
CONTINUOUS
 62
     3
 10
6382.94
 20
24238.1
 30
0.0
 11
6502.76
 21
24495.6
 31
0.0
  0
LINE
  5
484
  8
0
  6
CONTINUOUS
 62
     3
 10
6359.39
 20
24288.7
 30
0.0
 11
6447.5
 21
24478.1
 31
0.0
  0
LINE
  5
485
  8
0
  6
CONTINUOUS
 62
     3
 10
6290.24
 20
24038.9
 30
0.0
 11
6359.39
 21
24187.5
 31
0.0
  0
LINE
  5
486
  8
0
  6
CONTINUOUS
 62
     3
 10
6254.13
 20
24062.6
 30
0.0
 11
6335.84
 21
24238.1
 31
0.0
  0
LINE
  5
487
  8
0
  6
CONTINUOUS
 62
     3
 10
6447.51
 20
23998.2
 30
0.0
 11
6254.14
 21
24413.7
 31
0.0
  0
LINE
  5
488
  8
0
  6
CONTINUOUS
 62
     3
 10
9303.19
 20
24671.8
 30
0.0
 11
9558.4
 21
23793.4
 31
0.0
  0
LINE
  5
489
  8
0
  6
CONTINUOUS
 62
     3
 10
9259.52
 20
24669.1
 30
0.0
 11
9513.11
 21
23796.2
 31
0.0
  0
LINE
  5
48A
  8
0
  6
CONTINUOUS
 62
     3
 10
25167.5
 20
6954.83
 30
0.0
 11
25167.5
 21
6564.83
 31
0.0
  0
LINE
  5
48B
  8
0
  6
CONTINUOUS
 62
     3
 10
25167.5
 20
6564.83
 30
0.0
 11
26367.5
 21
6659.83
 31
0.0
  0
LINE
  5
48C
  8
0
  6
CONTINUOUS
 62
     3
 10
26367.5
 20
6859.83
 30
0.0
 11
25167.5
 21
6954.83
 31
0.0
  0
LINE
  5
48D
  8
0
  6
CONTINUOUS
 62
     3
 10
23223.0
 20
7071.26
 30
0.0
 11
23111.1
 21
6795.96
 31
0.0
  0
LINE
  5
48E
  8
0
  6
CONTINUOUS
 62
     3
 10
23251.4
 20
7068.85
 30
0.0
 11
23125.8
 21
6759.83
 31
0.0
  0
LINE
  5
48F
  8
0
  6
CONTINUOUS
 62
     3
 10
22991.3
 20
7090.98
 30
0.0
 11
23251.4
 21
6450.81
 31
0.0
  0
LINE
  5
490
  8
0
  6
CONTINUOUS
 62
     3
 10
22960.8
 20
7093.57
 30
0.0
 11
23223.0
 21
6448.39
 31
0.0
  0
LINE
  5
491
  8
0
  6
CONTINUOUS
 62
     3
 10
23286.0
 20
6453.76
 30
0.0
 11
23545.5
 21
7043.82
 31
0.0
  0
LINE
  5
492
  8
0
  6
CONTINUOUS
 62
     3
 10
23316.9
 20
6456.38
 30
0.0
 11
23574.2
 21
7041.38
 31
0.0
  0
LINE
  5
493
  8
0
  6
CONTINUOUS
 62
     3
 10
23545.6
 20
6475.84
 30
0.0
 11
23435.5
 21
6726.05
 31
0.0
  0
LINE
  5
494
  8
0
  6
CONTINUOUS
 62
     3
 10
23574.2
 20
6478.27
 30
0.0
 11
23450.4
 21
6759.83
 31
0.0
  0
LINE
  5
495
  8
0
  6
CONTINUOUS
 62
     3
 10
23896.8
 20
7013.93
 30
0.0
 11
23775.0
 21
6759.83
 31
0.0
  0
LINE
  5
496
  8
0
  6
CONTINUOUS
 62
     3
 10
23867.8
 20
7016.4
 30
0.0
 11
23760.0
 21
6791.3
 31
0.0
  0
LINE
  5
497
  8
0
  6
CONTINUOUS
 62
     3
 10
23611.5
 20
7038.21
 30
0.0
 11
23867.8
 21
6503.26
 31
0.0
  0
LINE
  5
498
  8
0
  6
CONTINUOUS
 62
     3
 10
23642.9
 20
7035.54
 30
0.0
 11
23896.8
 21
6505.72
 31
0.0
  0
LINE
  5
499
  8
0
  6
CONTINUOUS
 62
     3
 10
23969.4
 20
6511.9
 30
0.0
 11
24219.2
 21
6986.51
 31
0.0
  0
LINE
  5
49A
  8
0
  6
CONTINUOUS
 62
     3
 10
23937.2
 20
6509.16
 30
0.0
 11
24189.7
 21
6989.01
 31
0.0
  0
LINE
  5
49B
  8
0
  6
CONTINUOUS
 62
     3
 10
24189.8
 20
6530.65
 30
0.0
 11
24084.5
 21
6730.63
 31
0.0
  0
LINE
  5
49C
  8
0
  6
CONTINUOUS
 62
     3
 10
24219.2
 20
6533.15
 30
0.0
 11
24099.9
 21
6759.83
 31
0.0
  0
LINE
  5
49D
  8
0
  6
CONTINUOUS
 62
     3
 10
24541.2
 20
6959.11
 30
0.0
 11
24424.9
 21
6759.83
 31
0.0
  0
LINE
  5
49E
  8
0
  6
CONTINUOUS
 62
     3
 10
24511.2
 20
6961.66
 30
0.0
 11
24409.2
 21
6786.82
 31
0.0
  0
LINE
  5
49F
  8
0
  6
CONTINUOUS
 62
     3
 10
24296.5
 20
6979.93
 30
0.0
 11
24541.2
 21
6560.55
 31
0.0
  0
LINE
  5
4A0
  8
0
  6
CONTINUOUS
 62
     3
 10
24263.4
 20
6982.75
 30
0.0
 11
24511.2
 21
6558.0
 31
0.0
  0
LINE
  5
4A1
  8
0
  6
CONTINUOUS
 62
     3
 10
24624.5
 20
6567.63
 30
0.0
 11
24862.8
 21
6931.75
 31
0.0
  0
LINE
  5
4A2
  8
0
  6
CONTINUOUS
 62
     3
 10
24590.0
 20
6564.7
 30
0.0
 11
24832.0
 21
6934.37
 31
0.0
  0
LINE
  5
4A3
  8
0
  6
CONTINUOUS
 62
     3
 10
24862.8
 20
6587.91
 30
0.0
 11
24750.3
 21
6759.83
 31
0.0
  0
LINE
  5
4A4
  8
0
  6
CONTINUOUS
 62
     3
 10
24832.0
 20
6585.29
 30
0.0
 11
24734.0
 21
6735.0
 31
0.0
  0
LINE
  5
4A5
  8
0
  6
CONTINUOUS
 62
     3
 10
23420.7
 20
6759.83
 30
0.0
 11
23286.1
 21
7065.9
 31
0.0
  0
LINE
  5
4A6
  8
0
  6
CONTINUOUS
 62
     3
 10
23435.5
 20
6793.62
 30
0.0
 11
23316.9
 21
7063.27
 31
0.0
  0
LINE
  5
4A7
  8
0
  6
CONTINUOUS
 62
     3
 10
24069.1
 20
6759.83
 30
0.0
 11
23937.2
 21
7010.5
 31
0.0
  0
LINE
  5
4A8
  8
0
  6
CONTINUOUS
 62
     3
 10
24084.5
 20
6789.03
 30
0.0
 11
23969.4
 21
7007.76
 31
0.0
  0
LINE
  5
4A9
  8
0
  6
CONTINUOUS
 62
     3
 10
24717.7
 20
6759.83
 30
0.0
 11
24590.0
 21
6954.95
 31
0.0
  0
LINE
  5
4AA
  8
0
  6
CONTINUOUS
 62
     3
 10
24734.0
 20
6784.67
 30
0.0
 11
24624.5
 21
6952.02
 31
0.0
  0
LINE
  5
4AB
  8
0
  6
CONTINUOUS
 62
     3
 10
24917.5
 20
6927.09
 30
0.0
 11
25151.8
 21
6612.5
 31
0.0
  0
LINE
  5
4AC
  8
0
  6
CONTINUOUS
 62
     3
 10
24953.7
 20
6924.01
 30
0.0
 11
25167.5
 21
6637.0
 31
0.0
  0
LINE
  5
4AD
  8
0
  6
CONTINUOUS
 62
     3
 10
25151.8
 20
6907.15
 30
0.0
 11
25059.1
 21
6782.6
 31
0.0
  0
LINE
  5
4AE
  8
0
  6
CONTINUOUS
 62
     3
 10
25167.5
 20
6882.66
 30
0.0
 11
25076.0
 21
6759.83
 31
0.0
  0
LINE
  5
4AF
  8
0
  6
CONTINUOUS
 62
     3
 10
13526.6
 20
7241.66
 30
0.0
 11
13407.3
 21
6928.75
 31
0.0
  0
LINE
  5
4B0
  8
0
  6
CONTINUOUS
 62
     3
 10
13565.6
 20
7241.66
 30
0.0
 11
13426.8
 21
6877.66
 31
0.0
  0
LINE
  5
4B1
  8
0
  6
CONTINUOUS
 62
     3
 10
13249.1
 20
7241.66
 30
0.0
 11
13526.6
 21
6513.67
 31
0.0
  0
LINE
  5
4B2
  8
0
  6
CONTINUOUS
 62
     3
 10
13288.1
 20
7241.66
 30
0.0
 11
13565.6
 21
6513.67
 31
0.0
  0
LINE
  5
4B3
  8
0
  6
CONTINUOUS
 62
     3
 10
13628.1
 20
6513.67
 30
0.0
 11
13905.6
 21
7241.66
 31
0.0
  0
LINE
  5
4B4
  8
0
  6
CONTINUOUS
 62
     3
 10
13589.1
 20
6513.67
 30
0.0
 11
13866.6
 21
7241.66
 31
0.0
  0
LINE
  5
4B5
  8
0
  6
CONTINUOUS
 62
     3
 10
13866.6
 20
6513.67
 30
0.0
 11
13747.3
 21
6826.57
 31
0.0
  0
LINE
  5
4B6
  8
0
  6
CONTINUOUS
 62
     3
 10
13905.6
 20
6513.67
 30
0.0
 11
13766.8
 21
6877.67
 31
0.0
  0
LINE
  5
4B7
  8
0
  6
CONTINUOUS
 62
     3
 10
13929.1
 20
6513.67
 30
0.0
 11
14067.9
 21
6877.67
 31
0.0
  0
LINE
  5
4B8
  8
0
  6
CONTINUOUS
 62
     3
 10
13968.1
 20
6513.67
 30
0.0
 11
14087.3
 21
6826.57
 31
0.0
  0
LINE
  5
4B9
  8
0
  6
CONTINUOUS
 62
     3
 10
14308.1
 20
6513.67
 30
0.0
 11
14585.6
 21
7241.66
 31
0.0
  0
LINE
  5
4BA
  8
0
  6
CONTINUOUS
 62
     3
 10
14269.1
 20
6513.67
 30
0.0
 11
14546.6
 21
7241.66
 31
0.0
  0
LINE
  5
4BB
  8
0
  6
CONTINUOUS
 62
     3
 10
14585.6
 20
6513.67
 30
0.0
 11
14446.8
 21
6877.67
 31
0.0
  0
LINE
  5
4BC
  8
0
  6
CONTINUOUS
 62
     3
 10
14546.6
 20
6513.67
 30
0.0
 11
14427.3
 21
6826.57
 31
0.0
  0
LINE
  5
4BD
  8
0
  6
CONTINUOUS
 62
     3
 10
14648.1
 20
6513.67
 30
0.0
 11
14767.3
 21
6826.57
 31
0.0
  0
LINE
  5
4BE
  8
0
  6
CONTINUOUS
 62
     3
 10
14609.1
 20
6513.67
 30
0.0
 11
14747.9
 21
6877.67
 31
0.0
  0
LINE
  5
4BF
  8
0
  6
CONTINUOUS
 62
     3
 10
14988.1
 20
6513.67
 30
0.0
 11
15265.6
 21
7241.66
 31
0.0
  0
LINE
  5
4C0
  8
0
  6
CONTINUOUS
 62
     3
 10
14949.1
 20
6513.67
 30
0.0
 11
15226.6
 21
7241.66
 31
0.0
  0
LINE
  5
4C1
  8
0
  6
CONTINUOUS
 62
     3
 10
15226.6
 20
6513.67
 30
0.0
 11
15107.3
 21
6826.57
 31
0.0
  0
LINE
  5
4C2
  8
0
  6
CONTINUOUS
 62
     3
 10
15265.6
 20
6513.67
 30
0.0
 11
15126.8
 21
6877.67
 31
0.0
  0
LINE
  5
4C3
  8
0
  6
CONTINUOUS
 62
     3
 10
15289.1
 20
6513.67
 30
0.0
 11
15427.9
 21
6877.67
 31
0.0
  0
LINE
  5
4C4
  8
0
  6
CONTINUOUS
 62
     3
 10
15328.1
 20
6513.67
 30
0.0
 11
15447.3
 21
6826.57
 31
0.0
  0
LINE
  5
4C5
  8
0
  6
CONTINUOUS
 62
     3
 10
15629.1
 20
6513.67
 30
0.0
 11
15906.6
 21
7241.66
 31
0.0
  0
LINE
  5
4C6
  8
0
  6
CONTINUOUS
 62
     3
 10
15668.1
 20
6513.67
 30
0.0
 11
15945.6
 21
7241.66
 31
0.0
  0
LINE
  5
4C7
  8
0
  6
CONTINUOUS
 62
     3
 10
15906.6
 20
6513.67
 30
0.0
 11
15787.3
 21
6826.57
 31
0.0
  0
LINE
  5
4C8
  8
0
  6
CONTINUOUS
 62
     3
 10
15945.6
 20
6513.67
 30
0.0
 11
15806.8
 21
6877.67
 31
0.0
  0
LINE
  5
4C9
  8
0
  6
CONTINUOUS
 62
     3
 10
16008.1
 20
6513.67
 30
0.0
 11
16127.3
 21
6826.57
 31
0.0
  0
LINE
  5
4CA
  8
0
  6
CONTINUOUS
 62
     3
 10
15969.1
 20
6513.67
 30
0.0
 11
16107.9
 21
6877.67
 31
0.0
  0
LINE
  5
4CB
  8
0
  6
CONTINUOUS
 62
     3
 10
16348.1
 20
6513.67
 30
0.0
 11
16625.6
 21
7241.66
 31
0.0
  0
LINE
  5
4CC
  8
0
  6
CONTINUOUS
 62
     3
 10
16309.1
 20
6513.67
 30
0.0
 11
16586.6
 21
7241.66
 31
0.0
  0
LINE
  5
4CD
  8
0
  6
CONTINUOUS
 62
     3
 10
16625.6
 20
6513.67
 30
0.0
 11
16486.8
 21
6877.67
 31
0.0
  0
LINE
  5
4CE
  8
0
  6
CONTINUOUS
 62
     3
 10
16586.6
 20
6513.67
 30
0.0
 11
16467.3
 21
6826.57
 31
0.0
  0
LINE
  5
4CF
  8
0
  6
CONTINUOUS
 62
     3
 10
16688.1
 20
6513.67
 30
0.0
 11
16807.3
 21
6826.57
 31
0.0
  0
LINE
  5
4D0
  8
0
  6
CONTINUOUS
 62
     3
 10
16649.1
 20
6513.67
 30
0.0
 11
16787.9
 21
6877.67
 31
0.0
  0
LINE
  5
4D1
  8
0
  6
CONTINUOUS
 62
     3
 10
16989.1
 20
6513.67
 30
0.0
 11
17266.6
 21
7241.66
 31
0.0
  0
LINE
  5
4D2
  8
0
  6
CONTINUOUS
 62
     3
 10
17028.1
 20
6513.67
 30
0.0
 11
17305.6
 21
7241.66
 31
0.0
  0
LINE
  5
4D3
  8
0
  6
CONTINUOUS
 62
     3
 10
17305.6
 20
6513.67
 30
0.0
 11
17166.8
 21
6877.67
 31
0.0
  0
LINE
  5
4D4
  8
0
  6
CONTINUOUS
 62
     3
 10
17266.6
 20
6513.67
 30
0.0
 11
17147.4
 21
6826.57
 31
0.0
  0
LINE
  5
4D5
  8
0
  6
CONTINUOUS
 62
     3
 10
13727.9
 20
6877.67
 30
0.0
 11
13589.1
 21
7241.66
 31
0.0
  0
LINE
  5
4D6
  8
0
  6
CONTINUOUS
 62
     3
 10
13747.3
 20
6928.76
 30
0.0
 11
13628.1
 21
7241.66
 31
0.0
  0
LINE
  5
4D7
  8
0
  6
CONTINUOUS
 62
     3
 10
14206.6
 20
6513.67
 30
0.0
 11
13929.1
 21
7241.66
 31
0.0
  0
LINE
  5
4D8
  8
0
  6
CONTINUOUS
 62
     3
 10
14245.6
 20
6513.67
 30
0.0
 11
13968.1
 21
7241.66
 31
0.0
  0
LINE
  5
4D9
  8
0
  6
CONTINUOUS
 62
     3
 10
14407.9
 20
6877.67
 30
0.0
 11
14269.1
 21
7241.66
 31
0.0
  0
LINE
  5
4DA
  8
0
  6
CONTINUOUS
 62
     3
 10
14427.3
 20
6928.76
 30
0.0
 11
14308.1
 21
7241.66
 31
0.0
  0
LINE
  5
4DB
  8
0
  6
CONTINUOUS
 62
     3
 10
14886.6
 20
6513.67
 30
0.0
 11
14609.1
 21
7241.66
 31
0.0
  0
LINE
  5
4DC
  8
0
  6
CONTINUOUS
 62
     3
 10
14925.6
 20
6513.67
 30
0.0
 11
14648.1
 21
7241.66
 31
0.0
  0
LINE
  5
4DD
  8
0
  6
CONTINUOUS
 62
     3
 10
15087.9
 20
6877.67
 30
0.0
 11
14949.1
 21
7241.66
 31
0.0
  0
LINE
  5
4DE
  8
0
  6
CONTINUOUS
 62
     3
 10
15107.3
 20
6928.76
 30
0.0
 11
14988.1
 21
7241.66
 31
0.0
  0
LINE
  5
4DF
  8
0
  6
CONTINUOUS
 62
     3
 10
15566.6
 20
6513.67
 30
0.0
 11
15289.1
 21
7241.66
 31
0.0
  0
LINE
  5
4E0
  8
0
  6
CONTINUOUS
 62
     3
 10
15605.6
 20
6513.67
 30
0.0
 11
15328.1
 21
7241.66
 31
0.0
  0
LINE
  5
4E1
  8
0
  6
CONTINUOUS
 62
     3
 10
15767.9
 20
6877.67
 30
0.0
 11
15629.1
 21
7241.66
 31
0.0
  0
LINE
  5
4E2
  8
0
  6
CONTINUOUS
 62
     3
 10
15787.3
 20
6928.76
 30
0.0
 11
15668.1
 21
7241.66
 31
0.0
  0
LINE
  5
4E3
  8
0
  6
CONTINUOUS
 62
     3
 10
16246.6
 20
6513.67
 30
0.0
 11
15969.1
 21
7241.66
 31
0.0
  0
LINE
  5
4E4
  8
0
  6
CONTINUOUS
 62
     3
 10
16285.6
 20
6513.67
 30
0.0
 11
16008.1
 21
7241.66
 31
0.0
  0
LINE
  5
4E5
  8
0
  6
CONTINUOUS
 62
     3
 10
16447.9
 20
6877.67
 30
0.0
 11
16309.1
 21
7241.66
 31
0.0
  0
LINE
  5
4E6
  8
0
  6
CONTINUOUS
 62
     3
 10
16467.3
 20
6928.76
 30
0.0
 11
16348.1
 21
7241.66
 31
0.0
  0
LINE
  5
4E7
  8
0
  6
CONTINUOUS
 62
     3
 10
16926.6
 20
6513.67
 30
0.0
 11
16649.1
 21
7241.66
 31
0.0
  0
LINE
  5
4E8
  8
0
  6
CONTINUOUS
 62
     3
 10
16965.6
 20
6513.67
 30
0.0
 11
16688.1
 21
7241.66
 31
0.0
  0
LINE
  5
4E9
  8
0
  6
CONTINUOUS
 62
     3
 10
17127.9
 20
6877.67
 30
0.0
 11
16989.1
 21
7241.66
 31
0.0
  0
LINE
  5
4EA
  8
0
  6
CONTINUOUS
 62
     3
 10
17147.4
 20
6928.76
 30
0.0
 11
17028.1
 21
7241.66
 31
0.0
  0
LINE
  5
4EB
  8
0
  6
CONTINUOUS
 62
     3
 10
13387.8
 20
6877.66
 30
0.0
 11
13249.1
 21
6513.67
 31
0.0
  0
LINE
  5
4EC
  8
0
  6
CONTINUOUS
 62
     3
 10
13407.3
 20
6826.56
 30
0.0
 11
13288.1
 21
6513.67
 31
0.0
  0
LINE
  5
4ED
  8
0
  6
CONTINUOUS
 62
     3
 10
14106.8
 20
6877.67
 30
0.0
 11
14245.6
 21
7241.66
 31
0.0
  0
LINE
  5
4EE
  8
0
  6
CONTINUOUS
 62
     3
 10
14087.3
 20
6928.76
 30
0.0
 11
14206.6
 21
7241.66
 31
0.0
  0
LINE
  5
4EF
  8
0
  6
CONTINUOUS
 62
     3
 10
14786.8
 20
6877.67
 30
0.0
 11
14925.6
 21
7241.66
 31
0.0
  0
LINE
  5
4F0
  8
0
  6
CONTINUOUS
 62
     3
 10
14767.3
 20
6928.76
 30
0.0
 11
14886.6
 21
7241.66
 31
0.0
  0
LINE
  5
4F1
  8
0
  6
CONTINUOUS
 62
     3
 10
15466.8
 20
6877.67
 30
0.0
 11
15605.6
 21
7241.66
 31
0.0
  0
LINE
  5
4F2
  8
0
  6
CONTINUOUS
 62
     3
 10
15447.3
 20
6928.76
 30
0.0
 11
15566.6
 21
7241.66
 31
0.0
  0
LINE
  5
4F3
  8
0
  6
CONTINUOUS
 62
     3
 10
16146.8
 20
6877.67
 30
0.0
 11
16285.6
 21
7241.66
 31
0.0
  0
LINE
  5
4F4
  8
0
  6
CONTINUOUS
 62
     3
 10
16127.3
 20
6928.76
 30
0.0
 11
16246.6
 21
7241.66
 31
0.0
  0
LINE
  5
4F5
  8
0
  6
CONTINUOUS
 62
     3
 10
16826.8
 20
6877.67
 30
0.0
 11
16965.6
 21
7241.66
 31
0.0
  0
LINE
  5
4F6
  8
0
  6
CONTINUOUS
 62
     3
 10
16807.3
 20
6928.76
 30
0.0
 11
16926.6
 21
7241.66
 31
0.0
  0
LINE
  5
4F7
  8
0
  6
CONTINUOUS
 62
     3
 10
23111.1
 20
6723.7
 30
0.0
 11
22991.2
 21
6428.67
 31
0.0
  0
LINE
  5
4F8
  8
0
  6
CONTINUOUS
 62
     3
 10
23096.5
 20
6759.83
 30
0.0
 11
22960.8
 21
6426.09
 31
0.0
  0
LINE
  5
4F9
  8
0
  6
CONTINUOUS
 62
     3
 10
23760.0
 20
6728.36
 30
0.0
 11
23642.9
 21
6484.12
 31
0.0
  0
LINE
  5
4FA
  8
0
  6
CONTINUOUS
 62
     3
 10
23744.9
 20
6759.83
 30
0.0
 11
23611.5
 21
6481.45
 31
0.0
  0
LINE
  5
4FB
  8
0
  6
CONTINUOUS
 62
     3
 10
24409.2
 20
6732.85
 30
0.0
 11
24296.5
 21
6539.73
 31
0.0
  0
LINE
  5
4FC
  8
0
  6
CONTINUOUS
 62
     3
 10
24393.4
 20
6759.83
 30
0.0
 11
24263.4
 21
6536.91
 31
0.0
  0
LINE
  5
4FD
  8
0
  6
CONTINUOUS
 62
     3
 10
25059.1
 20
6737.06
 30
0.0
 11
24953.7
 21
6595.65
 31
0.0
  0
LINE
  5
4FE
  8
0
  6
CONTINUOUS
 62
     3
 10
25042.1
 20
6759.83
 30
0.0
 11
24917.5
 21
6592.57
 31
0.0
  0
LINE
  5
4FF
  8
0
  6
CONTINUOUS
 62
     3
 10
8078.17
 20
7260.59
 30
0.0
 11
8192.49
 21
6984.2
 31
0.0
  0
LINE
  5
500
  8
0
  6
CONTINUOUS
 62
     3
 10
8039.78
 20
7258.17
 30
0.0
 11
8172.8
 21
6936.58
 31
0.0
  0
LINE
  5
501
  8
0
  6
CONTINUOUS
 62
     3
 10
8353.37
 20
7277.91
 30
0.0
 11
8078.16
 21
6612.56
 31
0.0
  0
LINE
  5
502
  8
0
  6
CONTINUOUS
 62
     3
 10
8312.93
 20
7275.36
 30
0.0
 11
8039.77
 21
6614.97
 31
0.0
  0
LINE
  5
503
  8
0
  6
CONTINUOUS
 62
     3
 10
8019.31
 20
6616.26
 30
0.0
 11
7743.98
 21
7239.56
 31
0.0
  0
LINE
  5
504
  8
0
  6
CONTINUOUS
 62
     3
 10
7978.38
 20
6618.83
 30
0.0
 11
7705.26
 21
7237.12
 31
0.0
  0
LINE
  5
505
  8
0
  6
CONTINUOUS
 62
     3
 10
7705.26
 20
6636.02
 30
0.0
 11
7838.02
 21
6936.57
 31
0.0
  0
LINE
  5
506
  8
0
  6
CONTINUOUS
 62
     3
 10
7743.97
 20
6633.59
 30
0.0
 11
7857.92
 21
6891.53
 31
0.0
  0
LINE
  5
507
  8
0
  6
CONTINUOUS
 62
     3
 10
7370.72
 20
7216.07
 30
0.0
 11
7503.16
 21
6936.58
 31
0.0
  0
LINE
  5
508
  8
0
  6
CONTINUOUS
 62
     3
 10
7409.83
 20
7218.53
 30
0.0
 11
7523.31
 21
6979.08
 31
0.0
  0
LINE
  5
509
  8
0
  6
CONTINUOUS
 62
     3
 10
7643.76
 20
7233.25
 30
0.0
 11
7370.71
 21
6657.08
 31
0.0
  0
LINE
  5
50A
  8
0
  6
CONTINUOUS
 62
     3
 10
7685.28
 20
7235.86
 30
0.0
 11
7409.82
 21
6654.61
 31
0.0
  0
LINE
  5
50B
  8
0
  6
CONTINUOUS
 62
     3
 10
7351.3
 20
6658.3
 30
0.0
 11
7075.73
 21
7197.5
 31
0.0
  0
LINE
  5
50C
  8
0
  6
CONTINUOUS
 62
     3
 10
7309.07
 20
6660.95
 30
0.0
 11
7036.12
 21
7195.01
 31
0.0
  0
LINE
  5
50D
  8
0
  6
CONTINUOUS
 62
     3
 10
7036.12
 20
6678.13
 30
0.0
 11
7168.2
 21
6936.57
 31
0.0
  0
LINE
  5
50E
  8
0
  6
CONTINUOUS
 62
     3
 10
7075.73
 20
6675.64
 30
0.0
 11
7188.64
 21
6896.58
 31
0.0
  0
LINE
  5
50F
  8
0
  6
CONTINUOUS
 62
     3
 10
6701.49
 20
7173.95
 30
0.0
 11
6833.11
 21
6936.58
 31
0.0
  0
LINE
  5
510
  8
0
  6
CONTINUOUS
 62
     3
 10
6741.71
 20
7176.48
 30
0.0
 11
6853.92
 21
6974.11
 31
0.0
  0
LINE
  5
511
  8
0
  6
CONTINUOUS
 62
     3
 10
6974.25
 20
7191.12
 30
0.0
 11
6701.47
 21
6699.19
 31
0.0
  0
LINE
  5
512
  8
0
  6
CONTINUOUS
 62
     3
 10
7017.38
 20
7193.83
 30
0.0
 11
6741.69
 21
6696.66
 31
0.0
  0
LINE
  5
513
  8
0
  6
CONTINUOUS
 62
     3
 10
6639.3
 20
6703.1
 30
0.0
 11
6366.77
 21
7152.89
 31
0.0
  0
LINE
  5
514
  8
0
  6
CONTINUOUS
 62
     3
 10
6683.55
 20
6700.32
 30
0.0
 11
6407.77
 21
7155.47
 31
0.0
  0
LINE
  5
515
  8
0
  6
CONTINUOUS
 62
     3
 10
6407.76
 20
6717.67
 30
0.0
 11
6519.12
 21
6901.45
 31
0.0
  0
LINE
  5
516
  8
0
  6
CONTINUOUS
 62
     3
 10
6366.76
 20
6720.25
 30
0.0
 11
6497.84
 21
6936.57
 31
0.0
  0
LINE
  5
517
  8
0
  6
CONTINUOUS
 62
     3
 10
6079.12
 20
7126.74
 30
0.0
 11
6184.2
 21
6969.36
 31
0.0
  0
LINE
  5
518
  8
0
  6
CONTINUOUS
 62
     3
 10
6048.65
 20
7106.82
 30
0.0
 11
6162.32
 21
6936.58
 31
0.0
  0
LINE
  5
519
  8
0
  6
CONTINUOUS
 62
     3
 10
6349.8
 20
7151.82
 30
0.0
 11
6079.12
 21
6746.42
 31
0.0
  0
LINE
  5
51A
  8
0
  6
CONTINUOUS
 62
     3
 10
6304.11
 20
7148.94
 30
0.0
 11
6048.65
 21
6766.34
 31
0.0
  0
LINE
  5
51B
  8
0
  6
CONTINUOUS
 62
     3
 10
8192.49
 20
6888.97
 30
0.0
 11
8312.94
 21
6597.78
 31
0.0
  0
LINE
  5
51C
  8
0
  6
CONTINUOUS
 62
     3
 10
8212.19
 20
6936.58
 30
0.0
 11
8353.38
 21
6595.24
 31
0.0
  0
LINE
  5
51D
  8
0
  6
CONTINUOUS
 62
     3
 10
7877.82
 20
6936.57
 30
0.0
 11
8019.31
 21
7256.88
 31
0.0
  0
LINE
  5
51E
  8
0
  6
CONTINUOUS
 62
     3
 10
7857.92
 20
6981.61
 30
0.0
 11
7978.38
 21
7254.31
 31
0.0
  0
LINE
  5
51F
  8
0
  6
CONTINUOUS
 62
     3
 10
7543.45
 20
6936.58
 30
0.0
 11
7685.29
 21
6637.28
 31
0.0
  0
LINE
  5
520
  8
0
  6
CONTINUOUS
 62
     3
 10
7523.31
 20
6894.08
 30
0.0
 11
7643.77
 21
6639.89
 31
0.0
  0
LINE
  5
521
  8
0
  6
CONTINUOUS
 62
     3
 10
7209.08
 20
6936.57
 30
0.0
 11
7351.3
 21
7214.84
 31
0.0
  0
LINE
  5
522
  8
0
  6
CONTINUOUS
 62
     3
 10
7188.64
 20
6976.57
 30
0.0
 11
7309.06
 21
7212.19
 31
0.0
  0
LINE
  5
523
  8
0
  6
CONTINUOUS
 62
     3
 10
6874.73
 20
6936.58
 30
0.0
 11
7017.39
 21
6679.31
 31
0.0
  0
LINE
  5
524
  8
0
  6
CONTINUOUS
 62
     3
 10
6853.92
 20
6899.05
 30
0.0
 11
6974.27
 21
6682.02
 31
0.0
  0
LINE
  5
525
  8
0
  6
CONTINUOUS
 62
     3
 10
6540.4
 20
6936.57
 30
0.0
 11
6683.54
 21
7172.82
 31
0.0
  0
LINE
  5
526
  8
0
  6
CONTINUOUS
 62
     3
 10
6519.12
 20
6971.7
 30
0.0
 11
6639.3
 21
7170.04
 31
0.0
  0
LINE
  5
527
  8
0
  6
CONTINUOUS
 62
     3
 10
6206.09
 20
6936.58
 30
0.0
 11
6349.82
 21
6721.32
 31
0.0
  0
LINE
  5
528
  8
0
  6
CONTINUOUS
 62
     3
 10
6184.2
 20
6903.81
 30
0.0
 11
6304.13
 21
6724.19
 31
0.0
  0
CIRCLE
  5
569
  8
0
  6
CONTINUOUS
 62
     3
 10
25749.5
 20
23456.3
 30
0.0
 40
30.0
  0
ARC
  5
56A
  8
0
  6
CONTINUOUS
 62
     3
 10
25749.5
 20
23456.3
 30
0.0
 40
63.0001
 50
82.097
 51
277.9029
  0
ARC
  5
56B
  8
0
  6
CONTINUOUS
 62
     3
 10
25899.5
 20
24561.3
 30
0.0
 40
49.9999
 50
70.3538
 51
180.799
  0
CIRCLE
  5
56C
  8
0
  6
CONTINUOUS
 62
     3
 10
25899.5
 20
24561.3
 30
0.0
 40
35.0
  0
CIRCLE
  5
56D
  8
0
  6
CONTINUOUS
 62
     3
 10
25749.5
 20
24456.3
 30
0.0
 40
30.0
  0
ARC
  5
56E
  8
0
  6
CONTINUOUS
 62
     3
 10
25749.5
 20
24456.3
 30
0.0
 40
63.0001
 50
82.097
 51
277.9029
  0
CIRCLE
  5
56F
  8
0
  6
CONTINUOUS
 62
     3
 10
34749.5
 20
23456.3
 30
0.0
 40
30.0
  0
ARC
  5
570
  8
0
  6
CONTINUOUS
 62
     3
 10
34749.5
 20
23456.3
 30
0.0
 40
63.0001
 50
262.097
 51
97.9029
  0
CIRCLE
  5
571
  8
0
  6
CONTINUOUS
 62
     3
 10
34749.5
 20
24456.3
 30
0.0
 40
30.0
  0
ARC
  5
572
  8
0
  6
CONTINUOUS
 62
     3
 10
34749.5
 20
24456.3
 30
0.0
 40
63.0001
 50
262.097
 51
97.9029
  0
CIRCLE
  5
573
  8
0
  6
CONTINUOUS
 62
     3
 10
12616.5
 20
23686.6
 30
0.0
 40
30.0
  0
ARC
  5
574
  8
0
  6
CONTINUOUS
 62
     3
 10
12616.5
 20
23686.6
 30
0.0
 40
63.0001
 50
82.097
 51
277.9029
  0
CIRCLE
  5
575
  8
0
  6
CONTINUOUS
 62
     3
 10
12616.5
 20
24686.6
 30
0.0
 40
30.0
  0
ARC
  5
576
  8
0
  6
CONTINUOUS
 62
     3
 10
12616.5
 20
24686.6
 30
0.0
 40
63.0001
 50
82.097
 51
277.9029
  0
CIRCLE
  5
577
  8
0
  6
CONTINUOUS
 62
     3
 10
21616.5
 20
23686.6
 30
0.0
 40
30.0
  0
ARC
  5
578
  8
0
  6
CONTINUOUS
 62
     3
 10
21616.5
 20
23686.6
 30
0.0
 40
63.0001
 50
262.097
 51
97.9029
  0
CIRCLE
  5
579
  8
0
  6
CONTINUOUS
 62
     3
 10
21616.5
 20
24686.6
 30
0.0
 40
30.0
  0
ARC
  5
57A
  8
0
  6
CONTINUOUS
 62
     3
 10
21616.5
 20
24686.6
 30
0.0
 40
63.0001
 50
262.097
 51
97.9029
  0
ARC
  5
57B
  8
0
  6
CONTINUOUS
 62
     3
 10
4580.16
 20
24568.1
 30
0.0
 40
222.5
 50
158.839
 51
166.115
  0
ARC
  5
57C
  8
0
  6
CONTINUOUS
 62
     3
 10
3850.16
 20
24397.0
 30
0.0
 40
37.9995
 50
109.711
 51
180.0
  0
ARC
  5
57D
  8
0
  6
CONTINUOUS
 62
     3
 10
3900.16
 20
23708.1
 30
0.0
 40
75.0007
 50
164.181
 51
300.567
  0
ARC
  5
57E
  8
0
  6
CONTINUOUS
 62
     3
 10
3900.16
 20
23708.1
 30
0.0
 40
116.0
 50
114.465
 51
350.273
  0
ARC
  5
57F
  8
0
  6
CONTINUOUS
 62
     3
 10
4270.16
 20
24188.1
 30
0.0
 40
458.0
 50
180.0
 51
300.0
  0
CIRCLE
  5
580
  8
0
  6
CONTINUOUS
 62
     3
 10
3900.16
 20
23708.1
 30
0.0
 40
35.25
  0
ARC
  5
581
  8
0
  6
CONTINUOUS
 62
     3
 10
4405.16
 20
24738.1
 30
0.0
 40
32.4961
 50
0.0
 51
180.0
  0
CIRCLE
  5
582
  8
0
  6
CONTINUOUS
 62
     3
 10
4870.16
 20
24688.1
 30
0.0
 40
49.9999
  0
ARC
  5
583
  8
0
  6
CONTINUOUS
 62
     3
 10
4855.86
 20
23874.9
 30
0.0
 40
49.999
 50
238.761
 51
342.78
  0
ARC
  5
584
  8
0
  6
CONTINUOUS
 62
     3
 10
4870.16
 20
24688.1
 30
0.0
 40
100.0
 50
53.242
 51
109.796
  0
ARC
  5
585
  8
0
  6
CONTINUOUS
 62
     3
 10
9492.26
 20
23667.3
 30
0.0
 40
19.9984
 50
192.564
 51
285.149
  0
CIRCLE
  5
586
  8
0
  6
CONTINUOUS
 62
     3
 10
9770.16
 20
23738.1
 30
0.0
 40
30.0
  0
ARC
  5
587
  8
0
  6
CONTINUOUS
 62
     3
 10
9770.16
 20
23738.1
 30
0.0
 40
63.0001
 50
262.097
 51
97.9029
  0
ARC
  5
588
  8
0
  6
CONTINUOUS
 62
     3
 10
9605.26
 20
24830.5
 30
0.0
 40
34.9992
 50
158.208
 51
201.792
  0
ARC
  5
589
  8
0
  6
CONTINUOUS
 62
     3
 10
9605.26
 20
24830.5
 30
0.0
 40
34.9995
 50
338.224
 51
21.7759
  0
CIRCLE
  5
58A
  8
0
  6
CONTINUOUS
 62
     3
 10
9770.16
 20
24738.1
 30
0.0
 40
30.0
  0
ARC
  5
58B
  8
0
  6
CONTINUOUS
 62
     3
 10
9770.16
 20
24738.1
 30
0.0
 40
63.0001
 50
262.097
 51
97.9029
  0
ARC
  5
58C
  8
0
  6
CONTINUOUS
 62
     3
 10
3739.12
 20
12209.6
 30
0.0
 40
62.9999
 50
82.098
 51
277.902
  0
CIRCLE
  5
58D
  8
0
  6
CONTINUOUS
 62
     3
 10
3739.15
 20
12209.6
 30
0.0
 40
30.0
  0
CIRCLE
  5
58E
  8
0
  6
CONTINUOUS
 62
     3
 10
3739.15
 20
13209.6
 30
0.0
 40
30.0
  0
CIRCLE
  5
58F
  8
0
  6
CONTINUOUS
 62
     3
 10
3884.17
 20
13317.1
 30
0.0
 40
17.5
  0
ARC
  5
590
  8
0
  6
CONTINUOUS
 62
     3
 10
3739.12
 20
13209.6
 30
0.0
 40
62.9999
 50
82.098
 51
277.902
  0
ARC
  5
591
  8
0
  6
CONTINUOUS
 62
     3
 10
3884.15
 20
13317.1
 30
0.0
 40
29.9999
 50
89.9618
 51
161.104
  0
ARC
  5
592
  8
0
  6
CONTINUOUS
 62
     3
 10
3884.19
 20
13317.1
 30
0.0
 40
29.9999
 50
18.896
 51
90.0382
  0
ARC
  5
593
  8
0
  6
CONTINUOUS
 62
     3
 10
7314.14
 20
12709.6
 30
0.0
 40
99.9999
 50
306.398
 51
53.6022
  0
CIRCLE
  5
594
  8
0
  6
CONTINUOUS
 62
     3
 10
7643.65
 20
13054.2
 30
0.0
 40
27.5
  0
ARC
  5
595
  8
0
  6
CONTINUOUS
 62
     3
 10
7643.65
 20
13054.2
 30
0.0
 40
45.0
 50
355.60998
 51
118.351
  0
ARC
  5
596
  8
0
  6
CONTINUOUS
 62
     3
 10
8802.12
 20
12709.6
 30
0.0
 40
39.9999
 50
306.906
 51
53.4719
  0
ARC
  5
597
  8
0
  6
CONTINUOUS
 62
     3
 10
8787.66
 20
12932.3
 30
0.0
 40
29.9999
 50
12.4848
 51
175.2
  0
ARC
  5
598
  8
0
  6
CONTINUOUS
 62
     3
 10
8634.28
 20
13361.2
 30
0.0
 40
29.9999
 50
19.6747
 51
199.674
  0
ARC
  5
599
  8
0
  6
CONTINUOUS
 62
     3
 10
9239.12
 20
12709.6
 30
0.0
 40
79.9999
 50
308.682
 51
51.3178
  0
ARC
  5
59A
  8
0
  6
CONTINUOUS
 62
     3
 10
9239.12
 20
12709.6
 30
0.0
 40
80.0
 50
89.6298
 51
270.0
  0
ARC
  5
59B
  8
0
  6
CONTINUOUS
 62
     3
 10
9434.12
 20
12737.1
 30
0.0
 40
43.0
 50
0.0
 51
90.0
  0
ARC
  5
59C
  8
0
  6
CONTINUOUS
 62
     3
 10
9434.12
 20
12737.1
 30
0.0
 40
30.0
 50
0.0
 51
90.0
  0
ARC
  5
59D
  8
0
  6
CONTINUOUS
 62
     3
 10
9434.12
 20
12682.1
 30
0.0
 40
43.0
 50
270.0
 51
0.0
  0
ARC
  5
59E
  8
0
  6
CONTINUOUS
 62
     3
 10
9434.12
 20
12682.1
 30
0.0
 40
30.0
 50
270.0
 51
0.0
  0
ARC
  5
59F
  8
0
  6
CONTINUOUS
 62
     3
 10
8977.12
 20
13628.8
 30
0.0
 40
28.0
 50
317.609
 51
89.0139
  0
ARC
  5
5A0
  8
0
  6
CONTINUOUS
 62
     3
 10
15542.9
 20
12520.4
 30
0.0
 40
149.917
 50
202.362
 51
270.1445
  0
ARC
  5
5A1
  8
0
  6
CONTINUOUS
 62
     3
 10
15542.9
 20
12520.4
 30
0.0
 40
134.738
 50
106.485
 51
270.5413
  0
ARC
  5
5A2
  8
0
  6
CONTINUOUS
 62
     3
 10
15242.9
 20
13160.5
 30
0.0
 40
120.057
 50
57.6385
 51
213.919
  0
ARC
  5
5A3
  8
0
  6
CONTINUOUS
 62
     3
 10
15242.9
 20
13160.4
 30
0.0
 40
79.9997
 50
61.828
 51
280.073
  0
ARC
  5
5A4
  8
0
  6
CONTINUOUS
 62
     3
 10
15243.0
 20
13160.4
 30
0.0
 40
119.999
 50
48.9134
 51
57.7029
  0
ARC
  5
5A5
  8
0
  6
CONTINUOUS
 62
     3
 10
15307.6
 20
13501.4
 30
0.0
 40
30.0001
 50
118.148
 51
208.147
  0
ARC
  5
5A6
  8
0
  6
CONTINUOUS
 62
     3
 10
15336.0
 20
13448.5
 30
0.0
 40
30.0009
 50
208.147
 51
298.148
  0
ARC
  5
5A7
  8
0
  6
CONTINUOUS
 62
     3
 10
16242.9
 20
12920.4
 30
0.0
 40
45.0008
 50
50.9417
 51
185.116
  0
CIRCLE
  5
5A8
  8
0
  6
CONTINUOUS
 62
     3
 10
16138.6
 20
14412.5
 30
0.0
 40
35.25
  0
CIRCLE
  5
5A9
  8
0
  6
CONTINUOUS
 62
     3
 10
18663.7
 20
12096.2
 30
0.0
 40
19.05
  0
CIRCLE
  5
5AA
  8
0
  6
CONTINUOUS
 62
     3
 10
18663.7
 20
12096.2
 30
0.0
 40
13.0
  0
ARC
  5
5AB
  8
0
  6
CONTINUOUS
 62
     3
 10
19612.9
 20
12111.7
 30
0.0
 40
10.0004
 50
285.009
 51
0.0
  0
ARC
  5
5AC
  8
0
  6
CONTINUOUS
 62
     3
 10
19612.9
 20
11929.2
 30
0.0
 40
10.0
 50
0.0
 51
74.9907
  0
ARC
  5
5AD
  8
0
  6
CONTINUOUS
 62
     3
 10
19542.9
 20
12020.4
 30
0.0
 40
60.0
 50
104.589
 51
255.946
  0
ARC
  5
5AE
  8
0
  6
CONTINUOUS
 62
     3
 10
19542.9
 20
13020.4
 30
0.0
 40
120.0
 50
270.0
 51
95.1172
  0
CIRCLE
  5
5AF
  8
0
  6
CONTINUOUS
 62
     3
 10
19542.9
 20
13020.4
 30
0.0
 40
50.0
  0
CIRCLE
  5
5B0
  8
0
  6
CONTINUOUS
 62
     3
 10
19542.9
 20
13020.4
 30
0.0
 40
50.0
  0
ARC
  5
5B1
  8
0
  6
CONTINUOUS
 62
     3
 10
25779.8
 20
17833.4
 30
0.0
 40
90.0001
 50
278.495
 51
98.4949
  0
CIRCLE
  5
5B2
  8
0
  6
CONTINUOUS
 62
     3
 10
25779.8
 20
17833.4
 30
0.0
 40
39.9999
  0
ARC
  5
5B3
  8
0
  6
CONTINUOUS
 62
     3
 10
25483.1
 20
17789.1
 30
0.0
 40
222.499
 50
32.342
 51
253.601
  0
ARC
  5
5B4
  8
0
  6
CONTINUOUS
 62
     3
 10
25463.1
 20
17482.8
 30
0.0
 40
35.0059
 50
184.729
 51
303.329
  0
CIRCLE
  5
5B5
  8
0
  6
CONTINUOUS
 62
     3
 10
25483.1
 20
17789.1
 30
0.0
 40
65.0
  0
ARC
  5
5B6
  8
0
  6
CONTINUOUS
 62
     3
 10
25965.5
 20
17714.6
 30
0.0
 40
100.0
 50
98.4945
 51
116.874
  0
ARC
  5
5B7
  8
0
  6
CONTINUOUS
 62
     3
 10
25922.7
 20
18001.4
 30
0.0
 40
99.9998
 50
260.116
 51
278.495
  0
ARC
  5
5B8
  8
0
  6
CONTINUOUS
 62
     3
 10
29356.6
 20
11898.6
 30
0.0
 40
79.9997
 50
63.1653
 51
212.055
  0
CIRCLE
  5
5B9
  8
0
  6
CONTINUOUS
 62
     3
 10
29356.6
 20
11898.6
 30
0.0
 40
40.0
  0
ARC
  5
5BA
  8
0
  6
CONTINUOUS
 62
     3
 10
29646.1
 20
11420.6
 30
0.0
 40
10.0
 50
240.767
 51
332.5302
  0
ARC
  5
5BB
  8
0
  6
CONTINUOUS
 62
     3
 10
29080.0
 20
12674.2
 30
0.0
 40
40.0004
 50
303.328
 51
90.782
  0
ARC
  5
5BC
  8
0
  6
CONTINUOUS
 62
     3
 10
29911.2
 20
12850.7
 30
0.0
 40
40.0006
 50
69.0
 51
158.998
  0
ARC
  5
5BD
  8
0
  6
CONTINUOUS
 62
     3
 10
29861.0
 20
12720.0
 30
0.0
 40
40.0
 50
158.998
 51
249.0
  0
ARC
  5
5BE
  8
0
  6
CONTINUOUS
 62
     3
 10
28707.3
 20
18270.7
 30
0.0
 40
89.9997
 50
86.4416
 51
294.618
  0
ARC
  5
5BF
  8
0
  6
CONTINUOUS
 62
     3
 10
28521.5
 20
18389.6
 30
0.0
 40
99.9995
 50
278.495
 51
296.874
  0
ARC
  5
5C0
  8
0
  6
CONTINUOUS
 62
     3
 10
28564.3
 20
18102.7
 30
0.0
 40
100.0
 50
80.1156
 51
98.4945
  0
CIRCLE
  5
5C1
  8
0
  6
CONTINUOUS
 62
     3
 10
28707.3
 20
18270.7
 30
0.0
 40
39.9999
  0
CIRCLE
  5
5C2
  8
0
  6
CONTINUOUS
 62
     3
 10
28707.3
 20
18270.7
 30
0.0
 40
39.9999
  0
ARC
  5
5C3
  8
0
  6
CONTINUOUS
 62
     3
 10
28891.9
 20
18146.6
 30
0.0
 40
100.0
 50
98.4945
 51
114.755
  0
ARC
  5
5C4
  8
0
  6
CONTINUOUS
 62
     3
 10
28842.5
 20
18452.7
 30
0.0
 40
100.0
 50
266.442
 51
278.495
  0
ARC
  5
5C5
  8
0
  6
CONTINUOUS
 62
     3
 10
32406.3
 20
18823.2
 30
0.0
 40
222.501
 50
308.433
 51
162.692
  0
ARC
  5
5C6
  8
0
  6
CONTINUOUS
 62
     3
 10
32109.6
 20
18778.9
 30
0.0
 40
89.9999
 50
262.493
 51
110.547
  0
CIRCLE
  5
5C7
  8
0
  6
CONTINUOUS
 62
     3
 10
32109.6
 20
18778.9
 30
0.0
 40
39.9999
  0
ARC
  5
5C8
  8
0
  6
CONTINUOUS
 62
     3
 10
31969.2
 20
18606.2
 30
0.0
 40
100.0
 50
82.2341
 51
98.4945
  0
ARC
  5
5C9
  8
0
  6
CONTINUOUS
 62
     3
 10
31927.1
 20
18913.4
 30
0.0
 40
99.9995
 50
278.495
 51
290.548
  0
CIRCLE
  5
5CA
  8
0
  6
CONTINUOUS
 62
     3
 10
32406.3
 20
18823.2
 30
0.0
 40
55.0
  0
CIRCLE
  5
5CB
  8
0
  6
CONTINUOUS
 62
     3
 10
32406.3
 20
18823.2
 30
0.0
 40
54.9987
  0
CIRCLE
  5
5CC
  8
0
  6
CONTINUOUS
 62
     3
 10
32406.3
 20
18823.2
 30
0.0
 40
54.9987
  0
ARC
  5
5CD
  8
0
  6
CONTINUOUS
 62
     3
 10
32656.1
 20
18630.1
 30
0.0
 40
24.0012
 50
26.76
 51
206.76
  0
ARC
  5
5CE
  8
0
  6
CONTINUOUS
 62
     3
 10
32683.2
 20
18576.5
 30
0.0
 40
24.0012
 50
206.76
 51
26.76
  0
ARC
  5
5CF
  8
0
  6
CONTINUOUS
 62
     3
 10
32656.1
 20
18630.1
 30
0.0
 40
15.0014
 50
26.7619
 51
206.762
  0
ARC
  5
5D0
  8
0
  6
CONTINUOUS
 62
     3
 10
32683.2
 20
18576.5
 30
0.0
 40
15.0014
 50
206.762
 51
26.7619
  0
ARC
  5
5D1
  8
0
  6
CONTINUOUS
 62
     3
 10
31513.6
 20
6700.92
 30
0.0
 40
40.0
 50
95.6017
 51
264.3983
  0
CIRCLE
  5
5D2
  8
0
  6
CONTINUOUS
 62
     3
 10
31513.6
 20
6700.92
 30
0.0
 40
25.0
  0
CIRCLE
  5
5D3
  8
0
  6
CONTINUOUS
 62
     3
 10
36013.6
 20
6700.92
 30
0.0
 40
12.5
  0
CIRCLE
  5
5D4
  8
0
  6
CONTINUOUS
 62
     3
 10
22502.5
 20
6359.83
 30
0.0
 40
24.0
  0
ARC
  5
5D5
  8
0
  6
CONTINUOUS
 62
     3
 10
22502.5
 20
6359.83
 30
0.0
 40
50.3999
 50
82.098
 51
277.902
  0
ARC
  5
5D6
  8
0
  6
CONTINUOUS
 62
     3
 10
22502.5
 20
7159.82
 30
0.0
 40
50.3999
 50
82.098
 51
277.902
  0
CIRCLE
  5
5D7
  8
0
  6
CONTINUOUS
 62
     3
 10
22502.5
 20
7159.83
 30
0.0
 40
24.0
  0
ARC
  5
5D8
  8
0
  6
CONTINUOUS
 62
     3
 10
26502.5
 20
6759.83
 30
0.0
 40
63.9999
 50
308.682
 51
51.3178
  0
ARC
  5
5D9
  8
0
  6
CONTINUOUS
 62
     3
 10
26502.5
 20
6759.83
 30
0.0
 40
64.0
 50
89.6298
 51
270.0
  0
CIRCLE
  5
5DA
  8
0
  6
CONTINUOUS
 62
     3
 10
26502.5
 20
6963.83
 30
0.0
 40
25.0
  0
ARC
  5
5DB
  8
0
  6
CONTINUOUS
 62
     3
 10
26502.5
 20
6963.83
 30
0.0
 40
50.0
 50
9.17728
 51
147.395
  0
ARC
  5
5DC
  8
0
  6
CONTINUOUS
 62
     3
 10
26658.5
 20
6781.83
 30
0.0
 40
34.4
 50
0.0
 51
90.0
  0
ARC
  5
5DD
  8
0
  6
CONTINUOUS
 62
     3
 10
26658.5
 20
6781.83
 30
0.0
 40
24.0
 50
0.0
 51
90.0
  0
ARC
  5
5DE
  8
0
  6
CONTINUOUS
 62
     3
 10
26658.5
 20
6737.83
 30
0.0
 40
34.4
 50
270.0
 51
0.0
  0
ARC
  5
5DF
  8
0
  6
CONTINUOUS
 62
     3
 10
26658.5
 20
6737.83
 30
0.0
 40
24.0
 50
270.0
 51
0.0
  0
CIRCLE
  5
5E0
  8
0
  6
CONTINUOUS
 62
     3
 10
12777.3
 20
6477.67
 30
0.0
 40
24.0
  0
ARC
  5
5E1
  8
0
  6
CONTINUOUS
 62
     3
 10
12777.3
 20
6477.67
 30
0.0
 40
50.4001
 50
82.097
 51
277.9029
  0
CIRCLE
  5
5E2
  8
0
  6
CONTINUOUS
 62
     3
 10
12777.3
 20
7277.66
 30
0.0
 40
24.0
  0
ARC
  5
5E3
  8
0
  6
CONTINUOUS
 62
     3
 10
12777.3
 20
7277.67
 30
0.0
 40
50.4001
 50
82.097
 51
277.9029
  0
ARC
  5
5E4
  8
0
  6
CONTINUOUS
 62
     3
 10
17777.3
 20
6477.66
 30
0.0
 40
50.4001
 50
262.097
 51
97.9029
  0
CIRCLE
  5
5E5
  8
0
  6
CONTINUOUS
 62
     3
 10
17777.3
 20
6477.66
 30
0.0
 40
24.0
  0
ARC
  5
5E6
  8
0
  6
CONTINUOUS
 62
     3
 10
17777.3
 20
7277.66
 30
0.0
 40
50.4001
 50
262.097
 51
97.9029
  0
CIRCLE
  5
5E7
  8
0
  6
CONTINUOUS
 62
     3
 10
17777.3
 20
7277.66
 30
0.0
 40
24.0
  0
ARC
  5
5E8
  8
0
  6
CONTINUOUS
 62
     3
 10
4816.33
 20
6896.57
 30
0.0
 40
366.4
 50
180.0
 51
300.0
  0
ARC
  5
5E9
  8
0
  6
CONTINUOUS
 62
     3
 10
5025.29
 20
7224.71
 30
0.0
 40
30.0
 50
81.154
 51
130.353
  0
CIRCLE
  5
5EA
  8
0
  6
CONTINUOUS
 62
     3
 10
5016.33
 20
7186.57
 30
0.0
 40
39.9999
  0
CIRCLE
  5
5EB
  8
0
  6
CONTINUOUS
 62
     3
 10
8816.33
 20
7336.58
 30
0.0
 40
24.0
  0
ARC
  5
5EC
  8
0
  6
CONTINUOUS
 62
     3
 10
8816.33
 20
7336.58
 30
0.0
 40
50.4001
 50
262.097
 51
97.9029
  0
ARC
  5
5ED
  8
0
  6
CONTINUOUS
 62
     3
 10
8816.33
 20
6536.58
 30
0.0
 40
50.4001
 50
262.097
 51
97.9029
  0
CIRCLE
  5
5EE
  8
0
  6
CONTINUOUS
 62
     3
 10
8816.33
 20
6536.58
 30
0.0
 40
24.0
  0
ARC
  5
5EF
  8
0
  6
CONTINUOUS
 62
     6
 10
6187.4
 20
668.773
 30
0.0
 40
141.176
 50
358.4
 51
28.4
  0
ARC
  5
5F0
  8
0
  6
CONTINUOUS
 62
     6
 10
6251.57
 20
645.049
 30
0.0
 40
149.343
 50
11.8
 51
50.2
  0
ARC
  5
5F1
  8
0
  6
CONTINUOUS
 62
     6
 10
6467.81
 20
683.162
 30
0.0
 40
70.3936
 50
186.2
 51
55.2
  0
ARC
  5
5F2
  8
0
  6
CONTINUOUS
 62
     6
 10
6498.14
 20
683.94
 30
0.0
 40
170.345
 50
200.3
 51
61.8
  0
ARC
  5
5F3
  8
0
  6
CONTINUOUS
 62
     6
 10
6444.47
 20
673.44
 30
0.0
 40
116.285
 50
184.1
 51
204.6
  0
ARC
  5
5F4
  8
0
  6
CONTINUOUS
 62
     6
 10
6799.55
 20
1053.41
 30
0.0
 40
427.417
 50
213.9
 51
227.0
  0
ARC
  5
5F5
  8
0
  6
CONTINUOUS
 62
     6
 10
6584.09
 20
894.343
 30
0.0
 40
160.233
 50
190.4
 51
209.6
  0
ARC
  5
5F6
  8
0
  6
CONTINUOUS
 62
     6
 10
6334.41
 20
740.333
 30
0.0
 40
23.3349
 50
57.2
 51
191.6
  0
ARC
  5
5F7
  8
0
  6
CONTINUOUS
 62
     6
 10
6608.98
 20
935.957
 30
0.0
 40
106.174
 50
221.6
 51
253.6
  0
ARC
  5
5F8
  8
0
  6
CONTINUOUS
 62
     6
 10
12385.7
 20
1076.07
 30
0.0
 40
180.0
 50
174.622
 51
225.033
  0
ARC
  5
5F9
  8
0
  6
CONTINUOUS
 62
     6
 10
12358.8
 20
1078.99
 30
0.0
 40
62.9994
 50
167.204
 51
247.015
  0
ARC
  5
5FA
  8
0
  6
CONTINUOUS
 62
     6
 10
12267.4
 20
863.57
 30
0.0
 40
170.999
 50
0.03306
 51
67.0974
  0
ARC
  5
5FB
  8
0
  6
CONTINUOUS
 62
     6
 10
12107.5
 20
922.973
 30
0.0
 40
25.0
 50
37.0589
 51
208.19
  0
ARC
  5
5FC
  8
0
  6
CONTINUOUS
 62
     6
 10
12250.9
 20
868.056
 30
0.0
 40
62.5
 50
0.032945
 51
45.0336
  0
ARC
  5
5FD
  8
0
  6
CONTINUOUS
 62
     6
 10
11948.4
 20
742.723
 30
0.0
 40
265.0
 50
22.5007
 51
45.0331
  0
ARC
  5
5FE
  8
0
  6
CONTINUOUS
 62
     6
 10
12267.4
 20
847.056
 30
0.0
 40
155.0
 50
269.768
 51
284.901
  0
ARC
  5
5FF
  8
0
  6
CONTINUOUS
 62
     6
 10
12267.4
 20
847.056
 30
0.0
 40
155.0
 50
188.363
 51
269.251
  0
ARC
  5
600
  8
0
  6
CONTINUOUS
 62
     6
 10
11851.9
 20
785.973
 30
0.0
 40
264.999
 50
8.36312
 51
28.1901
  0
ARC
  5
601
  8
0
  6
CONTINUOUS
 62
     6
 10
12267.4
 20
863.57
 30
0.0
 40
171.0
 50
283.481
 51
0.032945
  0
ARC
  5
602
  8
0
  6
CONTINUOUS
 62
     6
 10
12250.9
 20
868.056
 30
0.0
 40
62.4997
 50
202.501
 51
267.189
  0
ARC
  5
603
  8
0
  6
CONTINUOUS
 62
     6
 10
12250.9
 20
868.056
 30
0.0
 40
62.4999
 50
267.067
 51
0.032945
  0
CIRCLE
  5
604
  8
0
  6
CONTINUOUS
 62
     3
 10
7829.15
 20
12709.6
 30
0.0
 40
64.9999
  0
CIRCLE
  5
60F
  8
0
  6
CONTINUOUS
 62
     3
 10
29603.9
 20
11522.7
 30
0.0
 40
45.25
  0
ARC
  5
626
  8
0
  6
CONTINUOUS
 62
     3
 10
4816.33
 20
6936.58
 30
0.0
 40
310.0
 50
61.9839
 51
152.971
  0
POLYLINE
  5
627
  8
0
  6
CONTINUOUS
 62
     3
 66
     1
 10
0.0
 20
0.0
 30
0.0
  0
VERTEX
  5
628
  8
0
 62
     3
 10
6113.96
 20
24322.1
 30
0.0
  0
VERTEX
  5
629
  8
0
 62
     3
 10
6106.62
 20
24316.8
 30
0.0
  0
VERTEX
  5
62A
  8
0
 62
     3
 10
6099.77
 20
24310.9
 30
0.0
  0
VERTEX
  5
62B
  8
0
 62
     3
 10
6093.49
 20
24304.4
 30
0.0
  0
VERTEX
  5
62C
  8
0
 62
     3
 10
6087.82
 20
24297.4
 30
0.0
  0
VERTEX
  5
62D
  8
0
 62
     3
 10
6082.81
 20
24289.8
 30
0.0
  0
VERTEX
  5
62E
  8
0
 62
     3
 10
6078.5
 20
24281.9
 30
0.0
  0
VERTEX
  5
62F
  8
0
 62
     3
 10
6074.92
 20
24273.6
 30
0.0
  0
VERTEX
  5
630
  8
0
 62
     3
 10
6072.11
 20
24265.0
 30
0.0
  0
VERTEX
  5
631
  8
0
 62
     3
 10
6070.08
 20
24256.2
 30
0.0
  0
VERTEX
  5
632
  8
0
 62
     3
 10
6068.86
 20
24247.2
 30
0.0
  0
VERTEX
  5
633
  8
0
 62
     3
 10
6068.45
 20
24238.1
 30
0.0
  0
VERTEX
  5
634
  8
0
 62
     3
 10
6068.86
 20
24229.1
 30
0.0
  0
VERTEX
  5
635
  8
0
 62
     3
 10
6070.08
 20
24220.1
 30
0.0
  0
VERTEX
  5
636
  8
0
 62
     3
 10
6072.11
 20
24211.3
 30
0.0
  0
VERTEX
  5
637
  8
0
 62
     3
 10
6074.92
 20
24202.7
 30
0.0
  0
VERTEX
  5
638
  8
0
 62
     3
 10
6078.5
 20
24194.4
 30
0.0
  0
VERTEX
  5
639
  8
0
 62
     3
 10
6082.81
 20
24186.4
 30
0.0
  0
VERTEX
  5
63A
  8
0
 62
     3
 10
6087.82
 20
24178.9
 30
0.0
  0
VERTEX
  5
63B
  8
0
 62
     3
 10
6093.49
 20
24171.9
 30
0.0
  0
VERTEX
  5
63C
  8
0
 62
     3
 10
6099.77
 20
24165.4
 30
0.0
  0
VERTEX
  5
63D
  8
0
 62
     3
 10
6106.62
 20
24159.5
 30
0.0
  0
VERTEX
  5
63E
  8
0
 62
     3
 10
6113.96
 20
24154.2
 30
0.0
  0
SEQEND
  5
63F
  8
0
 62
     3
  0
POLYLINE
  5
659
  8
0
  6
CONTINUOUS
 62
     3
 66
     1
 10
0.0
 20
0.0
 30
0.0
  0
VERTEX
  5
65A
  8
0
 62
     3
 10
5890.35
 20
7003.32
 30
0.0
  0
VERTEX
  5
65B
  8
0
 62
     3
 10
5884.56
 20
6999.1
 30
0.0
  0
VERTEX
  5
65C
  8
0
 62
     3
 10
5879.18
 20
6994.38
 30
0.0
  0
VERTEX
  5
65D
  8
0
 62
     3
 10
5874.24
 20
6989.19
 30
0.0
  0
VERTEX
  5
65E
  8
0
 62
     3
 10
5869.78
 20
6983.58
 30
0.0
  0
VERTEX
  5
65F
  8
0
 62
     3
 10
5865.84
 20
6977.59
 30
0.0
  0
VERTEX
  5
660
  8
0
 62
     3
 10
5862.45
 20
6971.27
 30
0.0
  0
VERTEX
  5
661
  8
0
 62
     3
 10
5859.64
 20
6964.67
 30
0.0
  0
VERTEX
  5
662
  8
0
 62
     3
 10
5857.43
 20
6957.85
 30
0.0
  0
VERTEX
  5
663
  8
0
 62
     3
 10
5855.84
 20
6950.85
 30
0.0
  0
VERTEX
  5
664
  8
0
 62
     3
 10
5854.88
 20
6943.75
 30
0.0
  0
VERTEX
  5
665
  8
0
 62
     3
 10
5854.56
 20
6936.58
 30
0.0
  0
VERTEX
  5
666
  8
0
 62
     3
 10
5854.88
 20
6929.41
 30
0.0
  0
VERTEX
  5
667
  8
0
 62
     3
 10
5855.84
 20
6922.3
 30
0.0
  0
VERTEX
  5
668
  8
0
 62
     3
 10
5857.43
 20
6915.31
 30
0.0
  0
VERTEX
  5
669
  8
0
 62
     3
 10
5859.64
 20
6908.48
 30
0.0
  0
VERTEX
  5
66A
  8
0
 62
     3
 10
5862.45
 20
6901.89
 30
0.0
  0
VERTEX
  5
66B
  8
0
 62
     3
 10
5865.84
 20
6895.57
 30
0.0
  0
VERTEX
  5
66C
  8
0
 62
     3
 10
5869.78
 20
6889.58
 30
0.0
  0
VERTEX
  5
66D
  8
0
 62
     3
 10
5874.24
 20
6883.97
 30
0.0
  0
VERTEX
  5
66E
  8
0
 62
     3
 10
5879.18
 20
6878.78
 30
0.0
  0
VERTEX
  5
66F
  8
0
 62
     3
 10
5884.56
 20
6874.06
 30
0.0
  0
VERTEX
  5
670
  8
0
 62
     3
 10
5890.35
 20
6869.84
 30
0.0
  0
SEQEND
  5
671
  8
0
 62
     3
  0
TEXT
  5
672
  8
0
  6
CONTINUOUS
 62
     7
 10
4545.77
 20
26704.5
 30
0.0
 40
800.0
  1
B110121
 41
0.75
  0
TEXT
  5
673
  8
0
  6
CONTINUOUS
 62
     7
 10
14299.5
 20
26704.5
 30
0.0
 40
800.0
  1
B110122
 41
0.75
  0
TEXT
  5
674
  8
0
  6
CONTINUOUS
 62
     7
 10
27893.3
 20
26474.2
 30
0.0
 40
800.0
  1
B110123
 41
0.75
  0
TEXT
  5
675
  8
0
  6
CONTINUOUS
 62
     7
 10
4610.13
 20
16455.5
 30
0.0
 40
800.0
  1
B110124
 41
0.75
  0
TEXT
  5
676
  8
0
  6
CONTINUOUS
 62
     7
 10
15605.1
 20
16496.6
 30
0.0
 40
800.0
  1
B110125
 41
0.75
  0
TEXT
  5
677
  8
0
  6
CONTINUOUS
 62
     7
 10
26818.1
 20
20948.1
 30
0.0
 40
800.0
  1
B110126
 41
0.75
  0
TEXT
  5
678
  8
0
  6
CONTINUOUS
 62
     7
 10
29707.799934
 20
275.293949
 30
0.0
 40
560.0
  1
AR200121B
 41
0.75
  0
TEXT
  5
679
  8
0
  6
CONTINUOUS
 62
     7
 10
29699.79995
 20
-530.904345
 30
0.0
 40
560.0
  1
AR-2000M
 41
0.75
  0
TEXT
  5
67A
  8
0
  6
CONTINUOUS
 62
     7
 10
29770.79995
 20
-1326.524345
 30
0.0
 40
560.0
  1
âëâtâBâôâOâWâu
  0
TEXT
  5
67B
  8
0
  6
CONTINUOUS
 62
     7
 10
25237.044762
 20
-553.891127
 30
0.0
 40
640.0
  1
ï@ü@ü@ü@ÄÝ
  0
TEXT
  5
67C
  8
0
  6
CONTINUOUS
 62
     7
 10
25255.544762
 20
260.228873
 30
0.0
 40
640.0
  1
âtâ@âCâïû╝
  0
TEXT
  5
67D
  8
0
  6
CONTINUOUS
 62
     7
 10
25194.799934
 20
-1376.096051
 30
0.0
 40
640.0
  1
âXâyâbâN
  0
TEXT
  5
67E
  8
0
  6
CONTINUOUS
 62
     7
 10
4391.71
 20
9078.3
 30
0.0
 40
800.0
  1
B110131
 41
0.75
  0
TEXT
  5
67F
  8
0
  6
CONTINUOUS
 62
     7
 10
13588.5
 20
9019.39
 30
0.0
 40
800.0
  1
B110132
 41
0.75
  0
TEXT
  5
680
  8
0
  6
CONTINUOUS
 62
     7
 10
23198.0
 20
8960.47
 30
0.0
 40
800.0
  1
B110133
 41
0.75
  0
TEXT
  5
681
  8
0
  6
CONTINUOUS
 62
     7
 10
31982.1
 20
8783.73
 30
0.0
 40
800.0
  1
B110134
 41
0.75
  0
TEXT
  5
682
  8
0
  6
CONTINUOUS
 62
     7
 10
4391.71
 20
3593.07
 30
0.0
 40
800.0
  1
B160114
 41
0.75
  0
TEXT
  5
683
  8
0
  6
CONTINUOUS
 62
     7
 10
10185.8
 20
3593.07
 30
0.0
 40
800.0
  1
B090115
 41
0.75
  0
TEXT
  5
685
  8
0
  6
CONTINUOUS
 62
     6
 10
6510.31
 20
575.259
 30
0.0
 40
30.0
  1
25t
 41
0.75
  0
POINT
  5
68D
  8
ô_
 62
     1
 10
4270.16
 20
24088.1
 30
0.0
  0
POINT
  5
68F
  8
ô_
 62
     1
 10
9770.16
 20
24738.1
 30
0.0
  0
POINT
  5
690
  8
ô_
 62
     1
 10
9770.16
 20
23738.1
 30
0.0
  0
POINT
  5
691
  8
ô_
 62
     1
 10
12616.5
 20
24686.6
 30
0.0
  0
POINT
  5
692
  8
ô_
 62
     1
 10
12616.5
 20
23686.6
 30
0.0
  0
POINT
  5
693
  8
ô_
 62
     1
 10
21616.5
 20
24686.6
 30
0.0
  0
POINT
  5
694
  8
ô_
 62
     1
 10
21616.5
 20
23686.6
 30
0.0
  0
POINT
  5
695
  8
ô_
 62
     1
 10
25749.5
 20
24456.3
 30
0.0
  0
POINT
  5
696
  8
ô_
 62
     1
 10
25749.5
 20
23456.3
 30
0.0
  0
POINT
  5
697
  8
ô_
 62
     1
 10
34749.5
 20
23456.3
 30
0.0
  0
POINT
  5
698
  8
ô_
 62
     1
 10
34749.5
 20
24456.3
 30
0.0
  0
POINT
  5
699
  8
ô_
 62
     1
 10
3739.15
 20
13209.6
 30
0.0
  0
POINT
  5
69A
  8
ô_
 62
     1
 10
3739.15
 20
12209.6
 30
0.0
  0
POINT
  5
69B
  8
ô_
 62
     1
 10
9239.12
 20
12709.6
 30
0.0
  0
POINT
  5
69C
  8
ô_
 62
     1
 10
15242.9
 20
13160.5
 30
0.0
  0
POINT
  5
69D
  8
ô_
 62
     1
 10
15542.9
 20
12520.4
 30
0.0
  0
POINT
  5
69E
  8
ô_
 62
     1
 10
19542.9
 20
13020.4
 30
0.0
  0
POINT
  5
69F
  8
ô_
 62
     1
 10
19542.9
 20
12020.4
 30
0.0
  0
POINT
  5
6A0
  8
ô_
 62
     1
 10
29603.9
 20
11522.7
 30
0.0
  0
POINT
  5
6A1
  8
ô_
 62
     1
 10
4816.33
 20
6936.58
 30
0.0
  0
POINT
  5
6A2
  8
ô_
 62
     1
 10
8816.33
 20
7336.58
 30
0.0
  0
POINT
  5
6A3
  8
ô_
 62
     1
 10
8816.33
 20
6536.58
 30
0.0
  0
POINT
  5
6A4
  8
ô_
 62
     1
 10
12777.3
 20
7277.66
 30
0.0
  0
POINT
  5
6A5
  8
ô_
 62
     1
 10
12777.3
 20
6477.67
 30
0.0
  0
POINT
  5
6A6
  8
ô_
 62
     1
 10
17777.3
 20
7277.66
 30
0.0
  0
POINT
  5
6A7
  8
ô_
 62
     1
 10
17777.3
 20
6477.66
 30
0.0
  0
POINT
  5
6A8
  8
ô_
 62
     1
 10
22502.5
 20
7159.83
 30
0.0
  0
POINT
  5
6A9
  8
ô_
 62
     1
 10
22502.5
 20
6359.83
 30
0.0
  0
POINT
  5
6AA
  8
ô_
 62
     1
 10
26502.5
 20
6754.85
 30
0.0
  0
POINT
  5
6AB
  8
ô_
 62
     1
 10
31513.6
 20
6700.92
 30
0.0
  0
POINT
  5
6AC
  8
ô_
 10
6468.2
 20
1520.88
 30
0.0
  0
POINT
  5
6AD
  8
ô_
 10
12250.9
 20
1522.94
 30
0.0
  0
LINE
  5
6AF
  8
ô_
 62
     3
 10
6467.36
 20
23923.1
 30
0.0
 11
6467.36
 21
23892.699372
 31
0.0
  0
LINE
  5
6B2
  8
ô_
 62
     3
 10
9640.16
 20
23783.2
 30
0.0
 11
9690.16
 21
23790.6
 31
0.0
  0
LINE
  5
6B5
  8
ô_
 62
     3
 10
9690.16
 20
24790.6
 30
0.0
 11
9384.36
 21
24772.2
 31
0.0
  0
LINE
  5
6B6
  8
ô_
 62
     3
 10
12746.5
 20
24739.1
 30
0.0
 11
12746.5
 21
24634.1
 31
0.0
  0
LINE
  5
6B9
  8
ô_
 62
     3
 10
8752.33
 20
7378.58
 30
0.0
 11
8710.41
 21
7376.54
 31
0.0
  0
LINE
  5
6BA
  8
ô_
 62
     3
 10
8712.33
 20
7300.49
 30
0.0
 11
8809.400167
 21
7286.658587
 31
0.0
  0
LINE
  5
6BC
  8
ô_
 62
     3
 10
8712.33
 20
6572.65
 30
0.0
 11
8752.33
 21
6578.58
 31
0.0
  0
TEXT
  8
0
  40
320
  5
1DCC
  62
7
  72
0
  71
0
 10
24928.2
 20
3260.09
 30
0.000000
  1
ALL RIGHTS RESERVED,COPYRIGHT(C) TADANOSYSTEMS INC.
  0
LINE
  5
1D62
  8
0
  6
CONTINUOUS
 62
     7
 10
27406.311915
 20
2874.48744
 30
0.0
 11
27406.311915
 21
2314.48744
 31
0.0
  0
LINE
  5
1D63
  8
0
  6
CONTINUOUS
 62
     7
 10
25838.311915
 20
2874.48744
 30
0.0
 11
25838.311915
 21
2034.48744
 31
0.0
  0
LINE
  5
1D64
  8
0
  6
CONTINUOUS
 62
     7
 10
25838.311915
 20
2034.48744
 30
0.0
 11
26930.311915
 21
2874.48744
 31
0.0
  0
LINE
  5
1D65
  8
0
  6
CONTINUOUS
 62
     7
 10
26118.311915
 20
1754.48744
 30
0.0
 11
26958.311915
 21
2874.48744
 31
0.0
  0
LINE
  5
1D66
  8
0
  6
CONTINUOUS
 62
     7
 10
26118.311915
 20
1754.48744
 30
0.0
 11
26958.311915
 21
1754.48744
 31
0.0
  0
LINE
  5
1D67
  8
0
  6
CONTINUOUS
 62
     7
 10
26958.311915
 20
2314.48744
 30
0.0
 11
26958.311915
 21
1754.48744
 31
0.0
  0
LINE
  5
1D68
  8
0
  6
CONTINUOUS
 62
     7
 10
26958.311915
 20
2314.48744
 30
0.0
 11
27406.311915
 21
2314.48744
 31
0.0
  0
LINE
  5
1D69
  8
0
  6
CONTINUOUS
 62
     7
 10
25838.311915
 20
2874.48744
 30
0.0
 11
26930.311915
 21
2874.48744
 31
0.0
  0
LINE
  5
1D6A
  8
0
  6
CONTINUOUS
 62
     7
 10
26958.311915
 20
2874.48744
 30
0.0
 11
27406.311915
 21
2874.48744
 31
0.0
  0
LINE
  5
1D6B
  8
0
  6
CONTINUOUS
 62
     7
 10
29493.031915
 20
2314.48744
 30
0.0
 11
29675.991915
 21
2314.48744
 31
0.0
  0
LINE
  5
1D6C
  8
0
  6
CONTINUOUS
 62
     7
 10
29493.031915
 20
2314.48744
 30
0.0
 11
29695.671915
 21
2874.48744
 31
0.0
  0
LINE
  5
1D6D
  8
0
  6
CONTINUOUS
 62
     7
 10
29172.151915
 20
2736.56744
 30
0.0
 11
29172.151915
 21
2455.12744
 31
0.0
  0
ARC
  5
1D6E
  8
0
  6
CONTINUOUS
 62
     7
 10
29138.391915
 20
2594.48744
 30
0.0
 40
213.884
 50
340.276
 51
22.213
  0
ARC
  5
1D6F
  8
0
  6
CONTINUOUS
 62
     7
 10
29149.671915
 20
2594.48744
 30
0.0
 40
368.668
 50
341.626
 51
23.9327
  0
LINE
  5
1D70
  8
0
  6
CONTINUOUS
 62
     7
 10
28690.231915
 20
2650.00744
 30
0.0
 11
28731.991915
 21
2514.24744
 31
0.0
  0
LINE
  5
1D71
  8
0
  6
CONTINUOUS
 62
     7
 10
28666.391915
 20
2650.00744
 30
0.0
 11
28624.471915
 21
2514.24744
 31
0.0
  0
LINE
  5
1D72
  8
0
  6
CONTINUOUS
 62
     7
 10
28122.551915
 20
2722.48744
 30
0.0
 11
28122.551915
 21
2314.48744
 31
0.0
  0
LINE
  5
1D73
  8
0
  6
CONTINUOUS
 62
     7
 10
29006.231915
 20
2874.48744
 30
0.0
 11
29006.231915
 21
2314.48744
 31
0.0
  0
LINE
  5
1D74
  8
0
  6
CONTINUOUS
 62
     7
 10
28773.991915
 20
2874.48744
 30
0.0
 11
28976.631915
 21
2314.48744
 31
0.0
  0
LINE
  5
1D75
  8
0
  6
CONTINUOUS
 62
     7
 10
28582.631915
 20
2874.48744
 30
0.0
 11
28379.991915
 21
2314.48744
 31
0.0
  0
LINE
  5
1D76
  8
0
  6
CONTINUOUS
 62
     7
 10
28299.831915
 20
2722.48744
 30
0.0
 11
28299.831915
 21
2314.48744
 31
0.0
  0
LINE
  5
1D77
  8
0
  6
CONTINUOUS
 62
     7
 10
28588.071915
 20
2396.08744
 30
0.0
 11
28562.871915
 21
2314.48744
 31
0.0
  0
LINE
  5
1D78
  8
0
  6
CONTINUOUS
 62
     7
 10
28122.551915
 20
2314.48744
 30
0.0
 11
28299.831915
 21
2314.48744
 31
0.0
  0
LINE
  5
1D79
  8
0
  6
CONTINUOUS
 62
     7
 10
28379.991915
 20
2314.48744
 30
0.0
 11
28562.871915
 21
2314.48744
 31
0.0
  0
LINE
  5
1D7A
  8
0
  6
CONTINUOUS
 62
     7
 10
29006.231915
 20
2314.48744
 30
0.0
 11
29272.551915
 21
2314.48744
 31
0.0
  0
LINE
  5
1D7B
  8
0
  6
CONTINUOUS
 62
     7
 10
28624.471915
 20
2514.24744
 30
0.0
 11
28731.991915
 21
2514.24744
 31
0.0
  0
LINE
  5
1D7C
  8
0
  6
CONTINUOUS
 62
     7
 10
28588.071915
 20
2396.08744
 30
0.0
 11
28768.551915
 21
2396.08744
 31
0.0
  0
LINE
  5
1D7D
  8
0
  6
CONTINUOUS
 62
     7
 10
28793.591915
 20
2314.48744
 30
0.0
 11
28976.631915
 21
2314.48744
 31
0.0
  0
LINE
  5
1D7E
  8
0
  6
CONTINUOUS
 62
     7
 10
28768.551915
 20
2396.08744
 30
0.0
 11
28793.591915
 21
2314.48744
 31
0.0
  0
LINE
  5
1D7F
  8
0
  6
CONTINUOUS
 62
     7
 10
29172.151915
 20
2455.12744
 30
0.0
 11
29244.391915
 21
2455.12744
 31
0.0
  0
ARC
  5
1D80
  8
0
  6
CONTINUOUS
 62
     7
 10
29244.391915
 20
2556.48744
 30
0.0
 40
101.3144
 50
270.0
 51
340.276
  0
ARC
  5
1D81
  8
0
  6
CONTINUOUS
 62
     7
 10
29272.551915
 20
2553.68744
 30
0.0
 40
239.212
 50
270.0
 51
341.626
  0
LINE
  5
1D82
  8
0
  6
CONTINUOUS
 62
     7
 10
27966.311915
 20
2874.48744
 30
0.0
 11
28455.911915
 21
2874.48744
 31
0.0
  0
LINE
  5
1D83
  8
0
  6
CONTINUOUS
 62
     7
 10
27966.311915
 20
2722.48744
 30
0.0
 11
28122.551915
 21
2722.48744
 31
0.0
  0
LINE
  5
1D84
  8
0
  6
CONTINUOUS
 62
     7
 10
27966.311915
 20
2874.48744
 30
0.0
 11
27966.311915
 21
2722.48744
 31
0.0
  0
LINE
  5
1D85
  8
0
  6
CONTINUOUS
 62
     7
 10
28455.911915
 20
2874.48744
 30
0.0
 11
28455.911915
 21
2722.48744
 31
0.0
  0
LINE
  5
1D86
  8
0
  6
CONTINUOUS
 62
     7
 10
28299.831915
 20
2722.48744
 30
0.0
 11
28455.911915
 21
2722.48744
 31
0.0
  0
LINE
  5
1D87
  8
0
  6
CONTINUOUS
 62
     7
 10
29006.231915
 20
2874.48744
 30
0.0
 11
29285.991915
 21
2874.48744
 31
0.0
  0
ARC
  5
1D88
  8
0
  6
CONTINUOUS
 62
     7
 10
28970.951915
 20
2736.56744
 30
0.0
 40
293.7896
 50
188.261
 51
197.133
  0
ARC
  5
1D89
  8
0
  6
CONTINUOUS
 62
     7
 10
28385.591915
 20
2736.56744
 30
0.0
 40
293.7904
 50
342.867
 51
351.73902
  0
LINE
  5
1D8A
  8
0
  6
CONTINUOUS
 62
     7
 10
28676.391915
 20
2694.40744
 30
0.0
 11
28680.311915
 21
2694.40744
 31
0.0
  0
LINE
  5
1D8B
  8
0
  6
CONTINUOUS
 62
     7
 10
28582.631915
 20
2874.48744
 30
0.0
 11
28773.991915
 21
2874.48744
 31
0.0
  0
ARC
  5
1D8C
  8
0
  6
CONTINUOUS
 62
     7
 10
29245.191915
 20
2638.00744
 30
0.0
 40
98.4984
 50
22.2133
 51
90.0
  0
LINE
  5
1D8D
  8
0
  6
CONTINUOUS
 62
     7
 10
29172.151915
 20
2736.56744
 30
0.0
 11
29245.191915
 21
2736.56744
 31
0.0
  0
ARC
  5
1D8E
  8
0
  6
CONTINUOUS
 62
     7
 10
29285.991915
 20
2654.96744
 30
0.0
 40
219.5136
 50
23.9328
 51
90.0
  0
ARC
  5
1D8F
  8
0
  6
CONTINUOUS
 62
     7
 10
30807.271915
 20
2594.48744
 30
0.0
 40
284.24
 50
345.311
 51
14.6886
  0
ARC
  5
1D90
  8
0
  6
CONTINUOUS
 62
     7
 10
31164.631915
 20
2594.48744
 30
0.0
 40
284.24
 50
165.132
 51
194.869
  0
ARC
  5
1D91
  8
0
  6
CONTINUOUS
 62
     7
 10
30932.471915
 20
2594.48744
 30
0.0
 40
337.7128
 50
332.938
 51
27.062
  0
ARC
  5
1D92
  8
0
  6
CONTINUOUS
 62
     7
 10
29919.351915
 20
2581.84744
 30
0.0
 40
360.2264
 50
0.0
 51
6.7299
  0
ARC
  5
1D93
  8
0
  6
CONTINUOUS
 62
     7
 10
30777.671915
 20
2874.48744
 30
0.0
 40
557.0016
 50
206.723
 51
211.578
  0
ARC
  5
1D94
  8
0
  6
CONTINUOUS
 62
     7
 10
30834.071915
 20
2607.12744
 30
0.0
 40
360.2264
 50
180.0
 51
186.73
  0
ARC
  5
1D95
  8
0
  6
CONTINUOUS
 62
     7
 10
29975.671915
 20
2314.48744
 30
0.0
 40
556.9992
 50
26.7228
 51
31.5781
  0
LINE
  5
1D96
  8
0
  6
CONTINUOUS
 62
     7
 10
29779.431915
 20
2650.00744
 30
0.0
 11
29737.591915
 21
2514.24744
 31
0.0
  0
LINE
  5
1D97
  8
0
  6
CONTINUOUS
 62
     7
 10
29803.271915
 20
2650.00744
 30
0.0
 11
29845.111915
 21
2514.24744
 31
0.0
  0
ARC
  5
1D98
  8
0
  6
CONTINUOUS
 62
     7
 10
31039.431915
 20
2594.48744
 30
0.0
 40
337.7128
 50
152.861
 51
207.131
  0
LINE
  5
1D99
  8
0
  6
CONTINUOUS
 62
     7
 10
29886.951915
 20
2874.48744
 30
0.0
 11
30089.671915
 21
2314.48744
 31
0.0
  0
LINE
  5
1D9A
  8
0
  6
CONTINUOUS
 62
     7
 10
30119.111915
 20
2874.48744
 30
0.0
 11
30119.111915
 21
2314.48744
 31
0.0
  0
LINE
  5
1D9B
  8
0
  6
CONTINUOUS
 62
     7
 10
30634.231915
 20
2874.48744
 30
0.0
 11
30634.231915
 21
2314.48744
 31
0.0
  0
LINE
  5
1D9C
  8
0
  6
CONTINUOUS
 62
     7
 10
30119.111915
 20
2314.48744
 30
0.0
 11
30279.671915
 21
2314.48744
 31
0.0
  0
LINE
  5
1D9D
  8
0
  6
CONTINUOUS
 62
     7
 10
29737.591915
 20
2514.24744
 30
0.0
 11
29845.111915
 21
2514.24744
 31
0.0
  0
LINE
  5
1D9E
  8
0
  6
CONTINUOUS
 62
     7
 10
29701.031915
 20
2396.08744
 30
0.0
 11
29881.591915
 21
2396.08744
 31
0.0
  0
LINE
  5
1D9F
  8
0
  6
CONTINUOUS
 62
     7
 10
29906.711915
 20
2314.48744
 30
0.0
 11
30089.671915
 21
2314.48744
 31
0.0
  0
LINE
  5
1DA0
  8
0
  6
CONTINUOUS
 62
     7
 10
29701.031915
 20
2396.08744
 30
0.0
 11
29675.991915
 21
2314.48744
 31
0.0
  0
LINE
  5
1DA1
  8
0
  6
CONTINUOUS
 62
     7
 10
29881.591915
 20
2396.08744
 30
0.0
 11
29906.711915
 21
2314.48744
 31
0.0
  0
LINE
  5
1DA2
  8
0
  6
CONTINUOUS
 62
     7
 10
30473.191915
 20
2564.88744
 30
0.0
 11
30476.311915
 21
2564.88744
 31
0.0
  0
LINE
  5
1DA3
  8
0
  6
CONTINUOUS
 62
     7
 10
30468.151915
 20
2314.48744
 30
0.0
 11
30634.231915
 21
2314.48744
 31
0.0
  0
LINE
  5
1DA4
  8
0
  6
CONTINUOUS
 62
     7
 10
30303.191915
 20
2582.80744
 30
0.0
 11
30468.151915
 21
2314.48744
 31
0.0
  0
LINE
  5
1DA5
  8
0
  6
CONTINUOUS
 62
     7
 10
30279.671915
 20
2581.84744
 30
0.0
 11
30279.671915
 21
2314.48744
 31
0.0
  0
ARC
  5
1DA6
  8
0
  6
CONTINUOUS
 62
     7
 10
30985.991915
 20
2547.68744
 30
0.0
 40
99.4984
 50
195.203
 51
345.311
  0
ARC
  5
1DA7
  8
0
  6
CONTINUOUS
 62
     7
 10
30985.991915
 20
2639.44744
 30
0.0
 40
337.7128
 50
252.699
 51
287.263
  0
ARC
  5
1DA8
  8
0
  6
CONTINUOUS
 62
     7
 10
30959.271915
 20
2553.44744
 30
0.0
 40
247.6544
 50
206.967
 51
252.685
  0
ARC
  5
1DA9
  8
0
  6
CONTINUOUS
 62
     7
 10
31012.711915
 20
2553.44744
 30
0.0
 40
247.6568
 50
287.263
 51
332.938
  0
LINE
  5
1DAA
  8
0
  6
CONTINUOUS
 62
     7
 10
30119.111915
 20
2874.48744
 30
0.0
 11
30285.271915
 21
2874.48744
 31
0.0
  0
ARC
  5
1DAB
  8
0
  6
CONTINUOUS
 62
     7
 10
29498.631915
 20
2736.56744
 30
0.0
 40
293.7904
 50
342.867
 51
351.73902
  0
ARC
  5
1DAC
  8
0
  6
CONTINUOUS
 62
     7
 10
30083.991915
 20
2736.56744
 30
0.0
 40
293.7896
 50
188.261
 51
197.133
  0
LINE
  5
1DAD
  8
0
  6
CONTINUOUS
 62
     7
 10
29789.431915
 20
2694.40744
 30
0.0
 11
29793.191915
 21
2694.40744
 31
0.0
  0
LINE
  5
1DAE
  8
0
  6
CONTINUOUS
 62
     7
 10
29695.671915
 20
2874.48744
 30
0.0
 11
29886.951915
 21
2874.48744
 31
0.0
  0
LINE
  5
1DAF
  8
0
  6
CONTINUOUS
 62
     7
 10
30285.271915
 20
2874.48744
 30
0.0
 11
30450.231915
 21
2606.08744
 31
0.0
  0
LINE
  5
1DB0
  8
0
  6
CONTINUOUS
 62
     7
 10
30277.031915
 20
2624.00744
 30
0.0
 11
30280.231915
 21
2624.00744
 31
0.0
  0
LINE
  5
1DB1
  8
0
  6
CONTINUOUS
 62
     7
 10
30473.751915
 20
2874.48744
 30
0.0
 11
30473.751915
 21
2607.12744
 31
0.0
  0
LINE
  5
1DB2
  8
0
  6
CONTINUOUS
 62
     7
 10
30473.751915
 20
2874.48744
 30
0.0
 11
30634.231915
 21
2874.48744
 31
0.0
  0
ARC
  5
1DB3
  8
0
  6
CONTINUOUS
 62
     7
 10
30959.271915
 20
2635.44744
 30
0.0
 40
247.6568
 50
107.346
 51
153.043
  0
ARC
  5
1DB4
  8
0
  6
CONTINUOUS
 62
     7
 10
30985.991915
 20
2641.28744
 30
0.0
 40
99.4976
 50
14.6894
 51
164.799
  0
ARC
  5
1DB5
  8
0
  6
CONTINUOUS
 62
     7
 10
30985.991915
 20
2549.44744
 30
0.0
 40
337.7128
 50
72.7367
 51
107.323
  0
ARC
  5
1DB6
  8
0
  6
CONTINUOUS
 62
     7
 10
31012.711915
 20
2635.44744
 30
0.0
 40
247.6552
 50
27.0618
 51
72.7366
  0
ENDSEC
  0
EOF
