  0
SECTION
  2
HEADER
  9
$ACADVER
  1
AC1009
  9
$INSBASE
 10
0.0
 20
0.0
 30
0.0
  9
$EXTMIN
 10
2512.84
 20
4464.95737
 30
0.0
  9
$EXTMAX
 10
45632.81263
 20
23263.627123
 30
0.0
  9
$LIMMIN
 10
-436.206819
 20
-306.805281
  9
$LIMMAX
 10
45585.308594
 20
20521.384766
  9
$ORTHOMODE
 70
     0
  9
$REGENMODE
 70
     1
  9
$FILLMODE
 70
     1
  9
$QTEXTMODE
 70
     0
  9
$MIRRTEXT
 70
     1
  9
$DRAGMODE
 70
     2
  9
$LTSCALE
 40
1.0
  9
$OSMODE
 70
   257
  9
$ATTMODE
 70
     1
  9
$TEXTSIZE
 40
3.15
  9
$TRACEWID
 40
0.05
  9
$TEXTSTYLE
  7
STANDARD
  9
$CLAYER
  8
ô_
  9
$CELTYPE
  6
BYLAYER
  9
$CECOLOR
 62
     3
  9
$DIMSCALE
 40
1.0
  9
$DIMASZ
 40
4.2
  9
$DIMEXO
 40
1.5625
  9
$DIMDLI
 40
9.5
  9
$DIMRND
 40
0.0
  9
$DIMDLE
 40
0.0
  9
$DIMEXE
 40
4.5
  9
$DIMTP
 40
0.0
  9
$DIMTM
 40
0.0
  9
$DIMTXT
 40
3.15
  9
$DIMCEN
 40
2.25
  9
$DIMTSZ
 40
0.0
  9
$DIMTOL
 70
     0
  9
$DIMLIM
 70
     0
  9
$DIMTIH
 70
     1
  9
$DIMTOH
 70
     1
  9
$DIMSE1
 70
     0
  9
$DIMSE2
 70
     0
  9
$DIMTAD
 70
     0
  9
$DIMZIN
 70
     0
  9
$DIMBLK
  1

  9
$DIMASO
 70
     1
  9
$DIMSHO
 70
     0
  9
$DIMPOST
  1

  9
$DIMAPOST
  1

  9
$DIMALT
 70
     0
  9
$DIMALTD
 70
     2
  9
$DIMALTF
 40
25.4
  9
$DIMLFAC
 40
1.0
  9
$DIMTOFL
 70
     0
  9
$DIMTVP
 40
0.0
  9
$DIMTIX
 70
     0
  9
$DIMSOXD
 70
     0
  9
$DIMSAH
 70
     0
  9
$DIMBLK1
  1

  9
$DIMBLK2
  1

  9
$DIMSTYLE
  2
STANDARD
  9
$DIMCLRD
 70
     0
  9
$DIMCLRE
 70
     0
  9
$DIMCLRT
 70
     0
  9
$DIMTFAC
 40
1.0
  9
$DIMGAP
 40
0.09
  9
$LUNITS
 70
     2
  9
$LUPREC
 70
     4
  9
$SKETCHINC
 40
0.1
  9
$FILLETRAD
 40
0.0
  9
$AUNITS
 70
     0
  9
$AUPREC
 70
     0
  9
$MENU
  1
acad
  9
$ELEVATION
 40
0.0
  9
$PELEVATION
 40
0.0
  9
$THICKNESS
 40
0.0
  9
$LIMCHECK
 70
     0
  9
$BLIPMODE
 70
     1
  9
$CHAMFERA
 40
0.0
  9
$CHAMFERB
 40
0.0
  9
$SKPOLY
 70
     0
  9
$TDCREATE
 40
2451556.385417
  9
$TDUPDATE
 40
2451814.387693
  9
$TDINDWG
 40
0.071016
  9
$TDUSRTIMER
 40
0.071016
  9
$USRTIMER
 70
     1
  9
$ANGBASE
 50
0.0
  9
$ANGDIR
 70
     0
  9
$PDMODE
 70
    35
  9
$PDSIZE
 40
0.0
  9
$PLINEWID
 40
0.0
  9
$COORDS
 70
     0
  9
$SPLFRAME
 70
     0
  9
$SPLINETYPE
 70
     6
  9
$SPLINESEGS
 70
     8
  9
$ATTDIA
 70
     0
  9
$ATTREQ
 70
     1
  9
$HANDLING
 70
     1
  9
$HANDSEED
  5
8E4
  9
$SURFTAB1
 70
     6
  9
$SURFTAB2
 70
     6
  9
$SURFTYPE
 70
     6
  9
$SURFU
 70
     6
  9
$SURFV
 70
     6
  9
$UCSNAME
  2

  9
$UCSORG
 10
0.0
 20
0.0
 30
0.0
  9
$UCSXDIR
 10
1.0
 20
0.0
 30
0.0
  9
$UCSYDIR
 10
0.0
 20
1.0
 30
0.0
  9
$PUCSNAME
  2

  9
$PUCSORG
 10
0.0
 20
0.0
 30
0.0
  9
$PUCSXDIR
 10
1.0
 20
0.0
 30
0.0
  9
$PUCSYDIR
 10
0.0
 20
1.0
 30
0.0
  9
$USERI1
 70
     0
  9
$USERI2
 70
     0
  9
$USERI3
 70
     0
  9
$USERI4
 70
     0
  9
$USERI5
 70
     0
  9
$USERR1
 40
0.0
  9
$USERR2
 40
0.0
  9
$USERR3
 40
0.0
  9
$USERR4
 40
0.0
  9
$USERR5
 40
0.0
  9
$WORLDVIEW
 70
     1
  9
$SHADEDGE
 70
     3
  9
$SHADEDIF
 70
    70
  9
$TILEMODE
 70
     1
  9
$MAXACTVP
 70
    48
  9
$PLIMCHECK
 70
     0
  9
$PEXTMIN
 10
1.000000E+020
 20
1.000000E+020
 30
1.000000E+020
  9
$PEXTMAX
 10
-1.000000E+020
 20
-1.000000E+020
 30
-1.000000E+020
  9
$PLIMMIN
 10
0.0
 20
0.0
  9
$PLIMMAX
 10
12.0
 20
9.0
  9
$UNITMODE
 70
     0
  9
$VISRETAIN
 70
     1
  9
$PLINEGEN
 70
     0
  9
$PSLTSCALE
 70
     1
  0
ENDSEC
  0
SECTION
  2
TABLES
  0
TABLE
  2
VPORT
 70
     2
  0
VPORT
  2
*ACTIVE
 70
     0
 10
0.0
 20
0.0
 11
1.0
 21
1.0
 12
27475.747622
 22
13110.680452
 13
0.0
 23
0.0
 14
1.0
 24
1.0
 15
0.0
 25
0.0
 16
0.0
 26
0.0
 36
1.0
 17
0.0
 27
0.0
 37
0.0
 40
30969.504399
 41
1.765267
 42
50.0
 43
0.0
 44
0.0
 50
0.0
 51
0.0
 71
     0
 72
   100
 73
     1
 74
     1
 75
     0
 76
     0
 77
     0
 78
     0
  0
ENDTAB
  0
TABLE
  2
LTYPE
 70
     1
  0
LTYPE
  2
CONTINUOUS
 70
     0
  3
Solid line
 72
    65
 73
     0
 40
0.0
  0
ENDTAB
  0
TABLE
  2
LAYER
 70
     2
  0
LAYER
  2
0
 70
     0
 62
     7
  6
CONTINUOUS
  0
LAYER
  2
ô_
 70
     0
 62
     1
  6
CONTINUOUS
  0
ENDTAB
  0
TABLE
  2
STYLE
 70
     1
  0
STYLE
  2
STANDARD
 70
     0
 40
0.0
 41
0.7
 50
0.0
 71
     0
 42
2.8
  3
txt
  4
bigfont
  0
ENDTAB
  0
TABLE
  2
VIEW
 70
     0
  0
ENDTAB
  0
TABLE
  2
UCS
 70
     0
  0
ENDTAB
  0
TABLE
  2
APPID
 70
     3
  0
APPID
  2
ACAD
 70
     0
  0
APPID
  2
CONTENTTABDATA
 70
     0
  0
APPID
  2
CONTENTCURRENTTAB
 70
     0
  0
ENDTAB
  0
TABLE
  2
DIMSTYLE
 70
     1
  0
DIMSTYLE
  2
STANDARD
 70
     0
  3

  4

  5

  6

  7

 40
1.0
 41
0.18
 42
0.0625
 43
0.38
 44
0.18
 45
0.0
 46
0.0
 47
0.0
 48
0.0
140
0.18
141
0.09
142
0.0
143
25.4
144
1.0
145
0.0
146
1.0
147
0.09
 71
     0
 72
     0
 73
     1
 74
     1
 75
     0
 76
     0
 77
     0
 78
     0
170
     0
171
     2
172
     0
173
     0
174
     0
175
     0
176
     0
177
     0
178
     0
  0
ENDTAB
  0
ENDSEC
  0
SECTION
  2
BLOCKS
  0
BLOCK
  8
0
  2
$MODEL_SPACE
 70
     0
 10
0.0
 20
0.0
 30
0.0
  3
$MODEL_SPACE
  1

  0
ENDBLK
  5
1A
  8
0
  0
BLOCK
 67
     1
  8
0
  2
$PAPER_SPACE
 70
     0
 10
0.0
 20
0.0
 30
0.0
  3
$PAPER_SPACE
  1

  0
ENDBLK
  5
17
 67
     1
  8
0
  0
ENDSEC
  0
SECTION
  2
ENTITIES
  0
LINE
  5
39
  8
0
  6
CONTINUOUS
 62
     3
 10
26455.3
 20
6062.46
 30
0.0
 11
26199.3
 21
6062.46
 31
0.0
  0
LINE
  5
3A
  8
0
  6
CONTINUOUS
 62
     3
 10
26199.3
 20
4962.48
 30
0.0
 11
26449.3
 21
4962.48
 31
0.0
  0
LINE
  5
3B
  8
0
  6
CONTINUOUS
 62
     3
 10
17715.3
 20
5057.48
 30
0.0
 11
26455.3
 21
5057.48
 31
0.0
  0
LINE
  5
3C
  8
0
  6
CONTINUOUS
 62
     3
 10
26455.3
 20
5967.47
 30
0.0
 11
17715.3
 21
5967.47
 31
0.0
  0
LINE
  5
3D
  8
0
  6
CONTINUOUS
 62
     3
 10
8715.34
 20
4967.48
 30
0.0
 11
17199.3
 21
4967.48
 31
0.0
  0
LINE
  5
3E
  8
0
  6
CONTINUOUS
 62
     3
 10
8715.34
 20
5057.48
 30
0.0
 11
17455.3
 21
5057.48
 31
0.0
  0
LINE
  5
3F
  8
0
  6
CONTINUOUS
 62
     3
 10
17455.3
 20
5967.47
 30
0.0
 11
8715.34
 21
5967.47
 31
0.0
  0
LINE
  5
40
  8
0
  6
CONTINUOUS
 62
     3
 10
17199.3
 20
6057.46
 30
0.0
 11
8971.34
 21
6057.46
 31
0.0
  0
LINE
  5
41
  8
0
  6
CONTINUOUS
 62
     3
 10
3418.74
 20
5981.66
 30
0.0
 11
2652.54
 21
5707.11
 31
0.0
  0
LINE
  5
42
  8
0
  6
CONTINUOUS
 62
     3
 10
2627.34
 20
5671.35
 30
0.0
 11
2627.34
 21
5462.47
 31
0.0
  0
LINE
  5
43
  8
0
  6
CONTINUOUS
 62
     3
 10
2643.14
 20
5002.92
 30
0.0
 11
2702.24
 21
5211.44
 31
0.0
  0
LINE
  5
44
  8
0
  6
CONTINUOUS
 62
     3
 10
2753.44
 20
4917.89
 30
0.0
 11
2940.14
 21
5028.11
 31
0.0
  0
LINE
  5
45
  8
0
  6
CONTINUOUS
 62
     3
 10
3187.84
 20
6012.47
 30
0.0
 11
3187.84
 21
5898.93
 31
0.0
  0
LINE
  5
46
  8
0
  6
CONTINUOUS
 62
     3
 10
8455.34
 20
5967.37
 30
0.0
 11
5181.44
 21
5761.34
 31
0.0
  0
LINE
  5
47
  8
0
  6
CONTINUOUS
 62
     3
 10
8199.874651
 20
6041.472181
 30
0.0
 11
4073.34
 21
5781.79
 31
0.0
  0
LINE
  5
48
  8
0
  6
CONTINUOUS
 62
     3
 10
8505.34
 20
4964.235673
 30
0.0
 11
4073.34
 21
5243.13
 31
0.0
  0
LINE
  5
49
  8
0
  6
CONTINUOUS
 62
     3
 10
8505.34
 20
5054.4136
 30
0.0
 11
5181.44
 21
5263.58
 31
0.0
  0
LINE
  5
4B
  8
0
  6
CONTINUOUS
 62
     3
 10
4928.548077
 20
5595.983709
 30
0.0
 11
5282.04
 21
5827.143035
 31
0.0
  0
LINE
  5
4C
  8
0
  6
CONTINUOUS
 62
     3
 10
5282.04
 20
5197.48
 30
0.0
 11
4928.555214
 21
5428.591624
 31
0.0
  0
LINE
  5
4E
  8
0
  6
CONTINUOUS
 62
     3
 10
4073.34
 20
5797.47
 30
0.0
 11
4073.34
 21
5244.42
 31
0.0
  0
LINE
  5
4F
  8
0
  6
CONTINUOUS
 62
     3
 10
4073.34
 20
5244.42
 30
0.0
 11
3675.401544
 21
5274.267798
 31
0.0
  0
LINE
  5
51
  8
0
  6
CONTINUOUS
 62
     3
 10
3645.14
 20
5106.51
 30
0.0
 11
3518.14
 21
5183.51
 31
0.0
  0
LINE
  5
52
  8
0
  6
CONTINUOUS
 62
     3
 10
3314.34
 20
5065.82
 30
0.0
 11
3675.401544
 21
5274.267798
 31
0.0
  0
LINE
  5
53
  8
0
  6
CONTINUOUS
 62
     3
 10
3718.74
 20
5134.47
 30
0.0
 11
3760.14
 21
5267.93
 31
0.0
  0
LINE
  5
54
  8
0
  6
CONTINUOUS
 62
     3
 10
3418.74
 20
5981.66
 30
0.0
 11
3421.44
 21
5974.12
 31
0.0
  0
LINE
  5
55
  8
0
  6
CONTINUOUS
 62
     3
 10
3651.47
 20
6056.56
 30
0.0
 11
3421.44
 21
5974.12
 31
0.0
  0
LINE
  5
56
  8
0
  6
CONTINUOUS
 62
     3
 10
3252.84
 20
6012.47
 30
0.0
 11
3252.84
 21
5922.22
 31
0.0
  0
LINE
  5
57
  8
0
  6
CONTINUOUS
 62
     3
 10
3745.14
 20
6042.58
 30
0.0
 11
4073.34
 21
5797.47
 31
0.0
  0
LINE
  5
5A
  8
0
  6
CONTINUOUS
 62
     3
 10
5269.44
 20
5258.05
 30
0.0
 11
5262.74
 21
5272.54
 31
0.0
  0
LINE
  5
5C
  8
0
  6
CONTINUOUS
 62
     3
 10
5282.54
 20
5197.47
 30
0.0
 11
5282.54
 21
5167.04
 31
0.0
  0
LINE
  5
5D
  8
0
  6
CONTINUOUS
 62
     3
 10
5282.04
 20
5197.47
 30
0.0
 11
5282.04
 21
5182.47
 31
0.0
  0
LINE
  5
5E
  8
0
  6
CONTINUOUS
 62
     3
 10
5282.54
 20
5182.47
 30
0.0
 11
5282.04
 21
5182.47
 31
0.0
  0
LINE
  5
5F
  8
0
  6
CONTINUOUS
 62
     3
 10
5282.54
 20
5197.47
 30
0.0
 11
5282.04
 21
5197.47
 31
0.0
  0
LINE
  5
62
  8
0
  6
CONTINUOUS
 62
     3
 10
5282.04
 20
5857.853302
 30
0.0
 11
5282.04
 21
5827.143035
 31
0.0
  0
LINE
  5
65
  8
0
  6
CONTINUOUS
 62
     3
 10
5262.74
 20
5752.41
 30
0.0
 11
5269.44
 21
5766.89
 31
0.0
  0
LINE
  5
6A
  8
0
  6
CONTINUOUS
 62
     3
 10
8449.04
 20
5057.95
 30
0.0
 11
8449.44
 21
5062.94
 31
0.0
  0
LINE
  5
6B
  8
0
  6
CONTINUOUS
 62
     3
 10
8438.64
 20
4956.4
 30
0.0
 11
8439.326109
 21
4968.389757
 31
0.0
  0
LINE
  5
6C
  8
0
  6
CONTINUOUS
 62
     3
 10
8312.64
 20
4922.31
 30
0.0
 11
8438.64
 21
4956.4
 31
0.0
  0
LINE
  5
6D
  8
0
  6
CONTINUOUS
 62
     3
 10
8205.54
 20
5073.28
 30
0.0
 11
8205.84
 21
5078.26
 31
0.0
  0
LINE
  5
6E
  8
0
  6
CONTINUOUS
 62
     3
 10
8287.94
 20
4937.02
 30
0.0
 11
8278.137382
 21
4978.532948
 31
0.0
  0
LINE
  5
6F
  8
0
  6
CONTINUOUS
 62
     3
 10
8449.34
 20
5062.94
 30
0.0
 11
8205.84
 21
5078.27
 31
0.0
  0
LINE
  5
72
  8
0
  6
CONTINUOUS
 62
     3
 10
8665.34
 20
4959.98
 30
0.0
 11
8593.94
 21
4950.08
 31
0.0
  0
LINE
  5
73
  8
0
  6
CONTINUOUS
 62
     3
 10
8665.34
 20
5064.98
 30
0.0
 11
8593.94
 21
5074.88
 31
0.0
  0
LINE
  5
75
  8
0
  6
CONTINUOUS
 62
     3
 10
8665.34
 20
5064.98
 30
0.0
 11
8665.34
 21
4959.98
 31
0.0
  0
LINE
  5
76
  8
0
  6
CONTINUOUS
 62
     3
 10
8715.34
 20
5064.98
 30
0.0
 11
8715.34
 21
4959.98
 31
0.0
  0
LINE
  5
77
  8
0
  6
CONTINUOUS
 62
     3
 10
8665.34
 20
5064.98
 30
0.0
 11
8715.34
 21
5064.98
 31
0.0
  0
LINE
  5
78
  8
0
  6
CONTINUOUS
 62
     3
 10
8665.34
 20
4959.98
 30
0.0
 11
8715.34
 21
4959.98
 31
0.0
  0
LINE
  5
79
  8
0
  6
CONTINUOUS
 62
     3
 10
8715.34
 20
4967.48
 30
0.0
 11
8721.34
 21
4967.48
 31
0.0
  0
LINE
  5
7B
  8
0
  6
CONTINUOUS
 62
     3
 10
8505.34
 20
4959.98
 30
0.0
 11
8576.74
 21
4950.08
 31
0.0
  0
LINE
  5
7C
  8
0
  6
CONTINUOUS
 62
     3
 10
8505.34
 20
5064.97
 30
0.0
 11
8576.74
 21
5074.87
 31
0.0
  0
LINE
  5
7D
  8
0
  6
CONTINUOUS
 62
     3
 10
8505.34
 20
4959.217275
 30
0.0
 11
8505.34
 21
5064.97
 31
0.0
  0
LINE
  5
81
  8
0
  6
CONTINUOUS
 62
     3
 10
8405.44
 20
6184.8
 30
0.0
 11
8435.44
 21
6184.8
 31
0.0
  0
LINE
  5
82
  8
0
  6
CONTINUOUS
 62
     3
 10
8452.94
 20
6134.8
 30
0.0
 11
8452.94
 21
6062.42
 31
0.0
  0
LINE
  5
83
  8
0
  6
CONTINUOUS
 62
     3
 10
8387.94
 20
6134.79
 30
0.0
 11
8387.94
 21
6058.33
 31
0.0
  0
LINE
  5
84
  8
0
  6
CONTINUOUS
 62
     3
 10
8387.94
 20
6134.8
 30
0.0
 11
8405.44
 21
6184.79
 31
0.0
  0
LINE
  5
85
  8
0
  6
CONTINUOUS
 62
     3
 10
8435.44
 20
6184.8
 30
0.0
 11
8452.94
 21
6134.79
 31
0.0
  0
LINE
  5
86
  8
0
  6
CONTINUOUS
 62
     3
 10
8199.874651
 20
6041.472181
 30
0.0
 11
8199.54
 21
6046.48
 31
0.0
  0
LINE
  5
87
  8
0
  6
CONTINUOUS
 62
     3
 10
8199.54
 20
6046.48
 30
0.0
 11
8515.172464
 21
6066.334702
 31
0.0
  0
LINE
  5
88
  8
0
  6
CONTINUOUS
 62
     3
 10
8971.34
 20
6062.46
 30
0.0
 11
8971.34
 21
6057.46
 31
0.0
  0
LINE
  5
89
  8
0
  6
CONTINUOUS
 62
     3
 10
8665.34
 20
5959.97
 30
0.0
 11
8593.94
 21
5950.07
 31
0.0
  0
LINE
  5
8A
  8
0
  6
CONTINUOUS
 62
     3
 10
8665.34
 20
6064.97
 30
0.0
 11
8593.94
 21
6074.87
 31
0.0
  0
LINE
  5
8B
  8
0
  6
CONTINUOUS
 62
     3
 10
8665.34
 20
5959.97
 30
0.0
 11
8715.34
 21
5959.97
 31
0.0
  0
LINE
  5
8D
  8
0
  6
CONTINUOUS
 62
     3
 10
8665.34
 20
6064.97
 30
0.0
 11
8665.34
 21
5959.97
 31
0.0
  0
LINE
  5
8E
  8
0
  6
CONTINUOUS
 62
     3
 10
8715.34
 20
6064.97
 30
0.0
 11
8715.34
 21
5959.97
 31
0.0
  0
LINE
  5
90
  8
0
  6
CONTINUOUS
 62
     3
 10
8665.34
 20
6064.97
 30
0.0
 11
8715.34
 21
6064.97
 31
0.0
  0
LINE
  5
92
  8
0
  6
CONTINUOUS
 62
     3
 10
8971.34
 20
6062.46
 30
0.0
 11
8715.34
 21
6062.46
 31
0.0
  0
LINE
  5
93
  8
0
  6
CONTINUOUS
 62
     3
 10
8505.34
 20
5959.97
 30
0.0
 11
8576.74
 21
5950.07
 31
0.0
  0
LINE
  5
94
  8
0
  6
CONTINUOUS
 62
     3
 10
8515.172464
 20
6066.334702
 30
0.0
 11
8576.74
 21
6074.88
 31
0.0
  0
LINE
  5
95
  8
0
  6
CONTINUOUS
 62
     3
 10
17971.3
 20
4967.48
 30
0.0
 11
26199.3
 21
4967.48
 31
0.0
  0
LINE
  5
96
  8
0
  6
CONTINUOUS
 62
     3
 10
26199.3
 20
6057.46
 30
0.0
 11
17971.3
 21
6057.46
 31
0.0
  0
LINE
  5
97
  8
0
  6
CONTINUOUS
 62
     3
 10
17665.3
 20
5959.97
 30
0.0
 11
17593.9
 21
5950.07
 31
0.0
  0
LINE
  5
98
  8
0
  6
CONTINUOUS
 62
     3
 10
17665.3
 20
6064.97
 30
0.0
 11
17593.9
 21
6074.87
 31
0.0
  0
LINE
  5
99
  8
0
  6
CONTINUOUS
 62
     3
 10
17665.3
 20
4959.98
 30
0.0
 11
17593.9
 21
4950.08
 31
0.0
  0
LINE
  5
9A
  8
0
  6
CONTINUOUS
 62
     3
 10
17665.3
 20
5064.98
 30
0.0
 11
17593.9
 21
5074.88
 31
0.0
  0
LINE
  5
9C
  8
0
  6
CONTINUOUS
 62
     3
 10
17505.3
 20
4959.98
 30
0.0
 11
17505.3
 21
5064.98
 31
0.0
  0
LINE
  5
9D
  8
0
  6
CONTINUOUS
 62
     3
 10
17505.3
 20
4959.98
 30
0.0
 11
17576.7
 21
4950.08
 31
0.0
  0
LINE
  5
9E
  8
0
  6
CONTINUOUS
 62
     3
 10
17505.3
 20
5064.97
 30
0.0
 11
17576.7
 21
5074.87
 31
0.0
  0
LINE
  5
A0
  8
0
  6
CONTINUOUS
 62
     3
 10
17455.3
 20
4959.98
 30
0.0
 11
17455.3
 21
5064.98
 31
0.0
  0
LINE
  5
A1
  8
0
  6
CONTINUOUS
 62
     3
 10
17455.3
 20
5064.98
 30
0.0
 11
17505.3
 21
5064.98
 31
0.0
  0
LINE
  5
A2
  8
0
  6
CONTINUOUS
 62
     3
 10
17455.3
 20
4959.98
 30
0.0
 11
17505.3
 21
4959.98
 31
0.0
  0
LINE
  5
A3
  8
0
  6
CONTINUOUS
 62
     3
 10
17199.3
 20
4962.48
 30
0.0
 11
17199.3
 21
4967.48
 31
0.0
  0
LINE
  5
A4
  8
0
  6
CONTINUOUS
 62
     3
 10
17199.3
 20
4962.48
 30
0.0
 11
17455.3
 21
4962.48
 31
0.0
  0
LINE
  5
A6
  8
0
  6
CONTINUOUS
 62
     3
 10
17505.3
 20
6064.98
 30
0.0
 11
17576.7
 21
6074.88
 31
0.0
  0
LINE
  5
A8
  8
0
  6
CONTINUOUS
 62
     3
 10
17455.3
 20
6064.97
 30
0.0
 11
17505.3
 21
6064.97
 31
0.0
  0
LINE
  5
A9
  8
0
  6
CONTINUOUS
 62
     3
 10
17505.3
 20
5959.97
 30
0.0
 11
17576.7
 21
5950.07
 31
0.0
  0
LINE
  5
AA
  8
0
  6
CONTINUOUS
 62
     3
 10
17455.3
 20
5959.97
 30
0.0
 11
17505.3
 21
5959.97
 31
0.0
  0
LINE
  5
AB
  8
0
  6
CONTINUOUS
 62
     3
 10
17505.3
 20
5959.97
 30
0.0
 11
17505.3
 21
6064.97
 31
0.0
  0
LINE
  5
AC
  8
0
  6
CONTINUOUS
 62
     3
 10
17455.3
 20
5959.97
 30
0.0
 11
17455.3
 21
6064.97
 31
0.0
  0
LINE
  5
AD
  8
0
  6
CONTINUOUS
 62
     3
 10
17199.3
 20
6057.46
 30
0.0
 11
17199.3
 21
6062.46
 31
0.0
  0
LINE
  5
AE
  8
0
  6
CONTINUOUS
 62
     3
 10
17455.3
 20
6062.46
 30
0.0
 11
17199.3
 21
6062.46
 31
0.0
  0
LINE
  5
AF
  8
0
  6
CONTINUOUS
 62
     3
 10
17971.3
 20
4967.48
 30
0.0
 11
17971.3
 21
4962.48
 31
0.0
  0
LINE
  5
B1
  8
0
  6
CONTINUOUS
 62
     3
 10
17665.3
 20
5064.98
 30
0.0
 11
17665.3
 21
4959.98
 31
0.0
  0
LINE
  5
B2
  8
0
  6
CONTINUOUS
 62
     3
 10
17715.3
 20
5064.98
 30
0.0
 11
17715.3
 21
4959.98
 31
0.0
  0
LINE
  5
B3
  8
0
  6
CONTINUOUS
 62
     3
 10
17665.3
 20
5064.98
 30
0.0
 11
17715.3
 21
5064.98
 31
0.0
  0
LINE
  5
B4
  8
0
  6
CONTINUOUS
 62
     3
 10
17665.3
 20
4959.98
 30
0.0
 11
17715.3
 21
4959.98
 31
0.0
  0
LINE
  5
B6
  8
0
  6
CONTINUOUS
 62
     3
 10
17715.3
 20
4962.48
 30
0.0
 11
17971.3
 21
4962.48
 31
0.0
  0
LINE
  5
B7
  8
0
  6
CONTINUOUS
 62
     3
 10
18035.3
 20
6063.47
 30
0.0
 11
18035.3
 21
6057.46
 31
0.0
  0
LINE
  5
B8
  8
0
  6
CONTINUOUS
 62
     3
 10
17971.3
 20
6062.46
 30
0.0
 11
17971.3
 21
6057.46
 31
0.0
  0
LINE
  5
B9
  8
0
  6
CONTINUOUS
 62
     3
 10
17665.3
 20
5959.97
 30
0.0
 11
17715.3
 21
5959.97
 31
0.0
  0
LINE
  5
BB
  8
0
  6
CONTINUOUS
 62
     3
 10
17665.3
 20
6064.97
 30
0.0
 11
17665.3
 21
5959.97
 31
0.0
  0
LINE
  5
BC
  8
0
  6
CONTINUOUS
 62
     3
 10
17715.3
 20
6064.97
 30
0.0
 11
17715.3
 21
5959.97
 31
0.0
  0
LINE
  5
BD
  8
0
  6
CONTINUOUS
 62
     3
 10
17685.3
 20
6118.17
 30
0.0
 11
17685.3
 21
6064.97
 31
0.0
  0
LINE
  5
BF
  8
0
  6
CONTINUOUS
 62
     3
 10
17665.3
 20
6064.97
 30
0.0
 11
17715.3
 21
6064.97
 31
0.0
  0
LINE
  5
C1
  8
0
  6
CONTINUOUS
 62
     3
 10
17752.2
 20
6164.56
 30
0.0
 11
18035.3
 21
6063.47
 31
0.0
  0
LINE
  5
C2
  8
0
  6
CONTINUOUS
 62
     3
 10
17971.3
 20
6062.46
 30
0.0
 11
17715.3
 21
6062.46
 31
0.0
  0
LINE
  5
C3
  8
0
  6
CONTINUOUS
 62
     3
 10
26199.3
 20
4962.48
 30
0.0
 11
26199.3
 21
4967.48
 31
0.0
  0
LINE
  5
C4
  8
0
  6
CONTINUOUS
 62
     3
 10
26199.3
 20
6057.46
 30
0.0
 11
26199.3
 21
6062.46
 31
0.0
  0
LINE
  5
C5
  8
0
  6
CONTINUOUS
 62
     3
 10
26971.3
 20
4967.48
 30
0.0
 11
35199.3
 21
4967.48
 31
0.0
  0
LINE
  5
C6
  8
0
  6
CONTINUOUS
 62
     3
 10
26715.3
 20
5057.48
 30
0.0
 11
35455.3
 21
5057.48
 31
0.0
  0
LINE
  5
C7
  8
0
  6
CONTINUOUS
 62
     3
 10
35455.3
 20
5967.47
 30
0.0
 11
26715.3
 21
5967.47
 31
0.0
  0
LINE
  5
C8
  8
0
  6
CONTINUOUS
 62
     3
 10
35199.3
 20
6057.46
 30
0.0
 11
26971.3
 21
6057.46
 31
0.0
  0
LINE
  5
C9
  8
0
  6
CONTINUOUS
 62
     3
 10
26715.3
 20
4962.48
 30
0.0
 11
26971.3
 21
4962.48
 31
0.0
  0
LINE
  5
CA
  8
0
  6
CONTINUOUS
 62
     3
 10
26449.3
 20
4962.48
 30
0.0
 11
26449.3
 21
4967.48
 31
0.0
  0
LINE
  5
CB
  8
0
  6
CONTINUOUS
 62
     3
 10
26505.3
 20
4959.98
 30
0.0
 11
26505.3
 21
5064.98
 31
0.0
  0
LINE
  5
CC
  8
0
  6
CONTINUOUS
 62
     3
 10
26505.3
 20
4959.98
 30
0.0
 11
26576.7
 21
4950.08
 31
0.0
  0
LINE
  5
CD
  8
0
  6
CONTINUOUS
 62
     3
 10
26505.3
 20
5064.97
 30
0.0
 11
26576.7
 21
5074.87
 31
0.0
  0
LINE
  5
CE
  8
0
  6
CONTINUOUS
 62
     3
 10
26449.3
 20
4967.48
 30
0.0
 11
26455.3
 21
4967.48
 31
0.0
  0
LINE
  5
CF
  8
0
  6
CONTINUOUS
 62
     3
 10
26455.3
 20
4959.98
 30
0.0
 11
26455.3
 21
5064.98
 31
0.0
  0
LINE
  5
D0
  8
0
  6
CONTINUOUS
 62
     3
 10
26455.3
 20
5064.98
 30
0.0
 11
26505.3
 21
5064.98
 31
0.0
  0
LINE
  5
D1
  8
0
  6
CONTINUOUS
 62
     3
 10
26455.3
 20
4959.98
 30
0.0
 11
26505.3
 21
4959.98
 31
0.0
  0
LINE
  5
D2
  8
0
  6
CONTINUOUS
 62
     3
 10
26665.3
 20
4959.98
 30
0.0
 11
26593.9
 21
4950.08
 31
0.0
  0
LINE
  5
D3
  8
0
  6
CONTINUOUS
 62
     3
 10
26665.3
 20
5064.98
 30
0.0
 11
26593.9
 21
5074.88
 31
0.0
  0
LINE
  5
D5
  8
0
  6
CONTINUOUS
 62
     3
 10
26665.3
 20
5064.98
 30
0.0
 11
26665.3
 21
4959.98
 31
0.0
  0
LINE
  5
D6
  8
0
  6
CONTINUOUS
 62
     3
 10
26715.3
 20
5064.98
 30
0.0
 11
26715.3
 21
4959.98
 31
0.0
  0
LINE
  5
D7
  8
0
  6
CONTINUOUS
 62
     3
 10
26665.3
 20
5064.98
 30
0.0
 11
26715.3
 21
5064.98
 31
0.0
  0
LINE
  5
D8
  8
0
  6
CONTINUOUS
 62
     3
 10
26665.3
 20
4959.98
 30
0.0
 11
26715.3
 21
4959.98
 31
0.0
  0
LINE
  5
DA
  8
0
  6
CONTINUOUS
 62
     3
 10
26971.3
 20
4967.48
 30
0.0
 11
26971.3
 21
4962.48
 31
0.0
  0
LINE
  5
DB
  8
0
  6
CONTINUOUS
 62
     3
 10
26971.3
 20
6062.46
 30
0.0
 11
26715.3
 21
6062.46
 31
0.0
  0
LINE
  5
DD
  8
0
  6
CONTINUOUS
 62
     3
 10
26505.3
 20
6064.98
 30
0.0
 11
26576.7
 21
6074.88
 31
0.0
  0
LINE
  5
DF
  8
0
  6
CONTINUOUS
 62
     3
 10
26455.3
 20
6064.97
 30
0.0
 11
26505.3
 21
6064.97
 31
0.0
  0
LINE
  5
E0
  8
0
  6
CONTINUOUS
 62
     3
 10
26505.3
 20
5959.97
 30
0.0
 11
26576.7
 21
5950.07
 31
0.0
  0
LINE
  5
E1
  8
0
  6
CONTINUOUS
 62
     3
 10
26455.3
 20
5959.97
 30
0.0
 11
26505.3
 21
5959.97
 31
0.0
  0
LINE
  5
E2
  8
0
  6
CONTINUOUS
 62
     3
 10
26505.3
 20
5959.97
 30
0.0
 11
26505.3
 21
6064.97
 31
0.0
  0
LINE
  5
E3
  8
0
  6
CONTINUOUS
 62
     3
 10
26455.3
 20
5959.97
 30
0.0
 11
26455.3
 21
6064.97
 31
0.0
  0
LINE
  5
E4
  8
0
  6
CONTINUOUS
 62
     3
 10
26665.3
 20
5959.97
 30
0.0
 11
26593.9
 21
5950.07
 31
0.0
  0
LINE
  5
E5
  8
0
  6
CONTINUOUS
 62
     3
 10
26665.3
 20
6064.97
 30
0.0
 11
26593.9
 21
6074.87
 31
0.0
  0
LINE
  5
E7
  8
0
  6
CONTINUOUS
 62
     3
 10
26665.3
 20
6064.97
 30
0.0
 11
26715.3
 21
6064.97
 31
0.0
  0
LINE
  5
E9
  8
0
  6
CONTINUOUS
 62
     3
 10
26665.3
 20
5959.97
 30
0.0
 11
26715.3
 21
5959.97
 31
0.0
  0
LINE
  5
EB
  8
0
  6
CONTINUOUS
 62
     3
 10
26665.3
 20
6064.97
 30
0.0
 11
26665.3
 21
5959.97
 31
0.0
  0
LINE
  5
EC
  8
0
  6
CONTINUOUS
 62
     3
 10
26715.3
 20
6064.97
 30
0.0
 11
26715.3
 21
5959.97
 31
0.0
  0
LINE
  5
ED
  8
0
  6
CONTINUOUS
 62
     3
 10
26971.3
 20
6062.46
 30
0.0
 11
26971.3
 21
6057.46
 31
0.0
  0
LINE
  5
EE
  8
0
  6
CONTINUOUS
 62
     3
 10
40925.3
 20
5457.6
 30
0.0
 11
35715.3
 21
5057.6
 31
0.0
  0
LINE
  5
EF
  8
0
  6
CONTINUOUS
 62
     3
 10
40925.3
 20
5367.34
 30
0.0
 11
35970.6
 21
4986.94
 31
0.0
  0
LINE
  5
F0
  8
0
  6
CONTINUOUS
 62
     3
 10
35715.4
 20
5967.33
 30
0.0
 11
40925.3
 21
5567.33
 31
0.0
  0
LINE
  5
F1
  8
0
  6
CONTINUOUS
 62
     3
 10
35970.6
 20
6037.99
 30
0.0
 11
40925.3
 21
5657.59
 31
0.0
  0
LINE
  5
F2
  8
0
  6
CONTINUOUS
 62
     3
 10
35715.3
 20
6062.608977
 30
0.0
 11
35971.0
 21
6042.98
 31
0.0
  0
LINE
  5
F3
  8
0
  6
CONTINUOUS
 62
     3
 10
35971.0
 20
4981.96
 30
0.0
 11
35715.3
 21
4962.329367
 31
0.0
  0
LINE
  5
F4
  8
0
  6
CONTINUOUS
 62
     3
 10
35199.3
 20
4962.48
 30
0.0
 11
35455.3
 21
4962.48
 31
0.0
  0
LINE
  5
F5
  8
0
  6
CONTINUOUS
 62
     3
 10
35199.3
 20
4962.48
 30
0.0
 11
35199.3
 21
4967.48
 31
0.0
  0
LINE
  5
F7
  8
0
  6
CONTINUOUS
 62
     3
 10
35505.3
 20
4959.98
 30
0.0
 11
35505.3
 21
5064.98
 31
0.0
  0
LINE
  5
F8
  8
0
  6
CONTINUOUS
 62
     3
 10
35505.3
 20
4959.98
 30
0.0
 11
35576.7
 21
4950.08
 31
0.0
  0
LINE
  5
F9
  8
0
  6
CONTINUOUS
 62
     3
 10
35505.3
 20
5064.97
 30
0.0
 11
35576.7
 21
5074.87
 31
0.0
  0
LINE
  5
FB
  8
0
  6
CONTINUOUS
 62
     3
 10
35455.3
 20
4959.98
 30
0.0
 11
35455.3
 21
5064.98
 31
0.0
  0
LINE
  5
FC
  8
0
  6
CONTINUOUS
 62
     3
 10
35455.3
 20
5064.98
 30
0.0
 11
35505.3
 21
5064.98
 31
0.0
  0
LINE
  5
FD
  8
0
  6
CONTINUOUS
 62
     3
 10
35455.3
 20
4959.98
 30
0.0
 11
35505.3
 21
4959.98
 31
0.0
  0
LINE
  5
FF
  8
0
  6
CONTINUOUS
 62
     3
 10
35665.3
 20
4959.97
 30
0.0
 11
35594.0
 21
4950.07
 31
0.0
  0
LINE
  5
100
  8
0
  6
CONTINUOUS
 62
     3
 10
35665.3
 20
5064.97
 30
0.0
 11
35594.0
 21
5074.87
 31
0.0
  0
LINE
  5
101
  8
0
  6
CONTINUOUS
 62
     3
 10
35715.3
 20
5064.97
 30
0.0
 11
35715.3
 21
4959.97
 31
0.0
  0
LINE
  5
104
  8
0
  6
CONTINUOUS
 62
     3
 10
35665.3
 20
5064.97
 30
0.0
 11
35665.3
 21
4959.97
 31
0.0
  0
LINE
  5
105
  8
0
  6
CONTINUOUS
 62
     3
 10
35665.3
 20
5064.97
 30
0.0
 11
35715.3
 21
5064.97
 31
0.0
  0
LINE
  5
106
  8
0
  6
CONTINUOUS
 62
     3
 10
35665.3
 20
4959.97
 30
0.0
 11
35715.3
 21
4959.97
 31
0.0
  0
LINE
  5
107
  8
0
  6
CONTINUOUS
 62
     3
 10
35455.3
 20
6062.46
 30
0.0
 11
35199.3
 21
6062.46
 31
0.0
  0
LINE
  5
108
  8
0
  6
CONTINUOUS
 62
     3
 10
35199.3
 20
6057.46
 30
0.0
 11
35199.3
 21
6062.46
 31
0.0
  0
LINE
  5
10A
  8
0
  6
CONTINUOUS
 62
     3
 10
35505.3
 20
6064.98
 30
0.0
 11
35576.7
 21
6074.88
 31
0.0
  0
LINE
  5
10C
  8
0
  6
CONTINUOUS
 62
     3
 10
35455.3
 20
6064.97
 30
0.0
 11
35505.3
 21
6064.97
 31
0.0
  0
LINE
  5
10D
  8
0
  6
CONTINUOUS
 62
     3
 10
35505.3
 20
5959.97
 30
0.0
 11
35576.7
 21
5950.07
 31
0.0
  0
LINE
  5
10E
  8
0
  6
CONTINUOUS
 62
     3
 10
35455.3
 20
5959.97
 30
0.0
 11
35505.3
 21
5959.97
 31
0.0
  0
LINE
  5
10F
  8
0
  6
CONTINUOUS
 62
     3
 10
35505.3
 20
5959.97
 30
0.0
 11
35505.3
 21
6064.97
 31
0.0
  0
LINE
  5
110
  8
0
  6
CONTINUOUS
 62
     3
 10
35455.3
 20
5959.97
 30
0.0
 11
35455.3
 21
6064.97
 31
0.0
  0
LINE
  5
111
  8
0
  6
CONTINUOUS
 62
     3
 10
35701.9
 20
6129.46
 30
0.0
 11
35680.4
 21
6064.95
 31
0.0
  0
LINE
  5
112
  8
0
  6
CONTINUOUS
 62
     3
 10
35758.8
 20
6129.68
 30
0.0
 11
35780.4
 21
6057.62
 31
0.0
  0
LINE
  5
115
  8
0
  6
CONTINUOUS
 62
     3
 10
35665.3
 20
6064.97
 30
0.0
 11
35594.0
 21
6074.87
 31
0.0
  0
LINE
  5
116
  8
0
  6
CONTINUOUS
 62
     3
 10
35665.3
 20
6064.97
 30
0.0
 11
35715.3
 21
6064.97
 31
0.0
  0
LINE
  5
117
  8
0
  6
CONTINUOUS
 62
     3
 10
35665.3
 20
5959.97
 30
0.0
 11
35594.0
 21
5950.06
 31
0.0
  0
LINE
  5
118
  8
0
  6
CONTINUOUS
 62
     3
 10
35665.3
 20
5959.97
 30
0.0
 11
35715.3
 21
5959.97
 31
0.0
  0
LINE
  5
119
  8
0
  6
CONTINUOUS
 62
     3
 10
35665.3
 20
6064.97
 30
0.0
 11
35665.3
 21
5959.97
 31
0.0
  0
LINE
  5
11A
  8
0
  6
CONTINUOUS
 62
     3
 10
35715.3
 20
6064.97
 30
0.0
 11
35715.3
 21
5959.97
 31
0.0
  0
LINE
  5
11B
  8
0
  6
CONTINUOUS
 62
     3
 10
35970.6
 20
4987.2
 30
0.0
 11
35971.0
 21
4981.96
 31
0.0
  0
LINE
  5
11C
  8
0
  6
CONTINUOUS
 62
     3
 10
36138.2
 20
5090.05
 30
0.0
 11
36138.2
 21
5090.06
 31
0.0
  0
LINE
  5
11E
  8
0
  6
CONTINUOUS
 62
     3
 10
39473.3
 20
5898.93
 30
0.0
 11
40372.0
 21
6286.2
 31
0.0
  0
LINE
  5
11F
  8
0
  6
CONTINUOUS
 62
     3
 10
39532.6
 20
5826.49
 30
0.0
 11
40407.6
 21
6203.54
 31
0.0
  0
LINE
  5
120
  8
0
  6
CONTINUOUS
 62
     3
 10
39219.7
 20
5431.96
 30
0.0
 11
39075.3
 21
5325.55
 31
0.0
  0
LINE
  5
121
  8
0
  6
CONTINUOUS
 62
     3
 10
39075.3
 20
5325.57
 30
0.0
 11
39075.3
 21
5315.57
 31
0.0
  0
LINE
  5
122
  8
0
  6
CONTINUOUS
 62
     3
 10
39219.7
 20
5592.94
 30
0.0
 11
39075.3
 21
5699.35
 31
0.0
  0
LINE
  5
123
  8
0
  6
CONTINUOUS
 62
     3
 10
39075.3
 20
5709.37
 30
0.0
 11
39075.3
 21
5699.37
 31
0.0
  0
LINE
  5
124
  8
0
  6
CONTINUOUS
 62
     3
 10
39534.7
 20
5853.61
 30
0.0
 11
39527.9
 21
5764.88
 31
0.0
  0
LINE
  5
125
  8
0
  6
CONTINUOUS
 62
     3
 10
39468.3
 20
5896.54
 30
0.0
 11
39310.8
 21
5810.61
 31
0.0
  0
LINE
  5
126
  8
0
  6
CONTINUOUS
 62
     3
 10
39310.8
 20
5810.63
 30
0.0
 11
39308.6
 21
5781.72
 31
0.0
  0
LINE
  5
127
  8
0
  6
CONTINUOUS
 62
     3
 10
40539.5
 20
6254.92
 30
0.0
 11
40743.8
 21
6342.95
 31
0.0
  0
LINE
  5
128
  8
0
  6
CONTINUOUS
 62
     3
 10
40501.9
 20
6363.92
 30
0.0
 11
40553.3
 21
6244.54
 31
0.0
  0
LINE
  5
129
  8
0
  6
CONTINUOUS
 62
     3
 10
40366.1
 20
6299.97
 30
0.0
 11
40413.6
 21
6189.77
 31
0.0
  0
LINE
  5
12A
  8
0
  6
CONTINUOUS
 62
     3
 10
40456.2
 20
6343.62
 30
0.0
 11
40507.4
 21
6224.75
 31
0.0
  0
LINE
  5
12B
  8
0
  6
CONTINUOUS
 62
     3
 10
40672.1
 20
5480.32
 30
0.0
 11
40608.6
 21
5433.29
 31
0.0
  0
LINE
  5
12C
  8
0
  6
CONTINUOUS
 62
     3
 10
40672.1
 20
5544.61
 30
0.0
 11
40608.6
 21
5591.64
 31
0.0
  0
LINE
  5
12D
  8
0
  6
CONTINUOUS
 62
     3
 10
40585.5
 20
5693.71
 30
0.0
 11
40685.2
 21
5686.05
 31
0.0
  0
LINE
  5
12E
  8
0
  6
CONTINUOUS
 62
     3
 10
40508.7
 20
6174.21
 30
0.0
 11
40663.1
 21
5741.62
 31
0.0
  0
LINE
  5
12F
  8
0
  6
CONTINUOUS
 62
     3
 10
40487.0
 20
6221.43
 30
0.0
 11
40503.4
 21
6183.41
 31
0.0
  0
LINE
  5
130
  8
0
  6
CONTINUOUS
 62
     3
 10
40507.4
 20
6224.75
 30
0.0
 11
40553.3
 21
6244.54
 31
0.0
  0
LINE
  5
131
  8
0
  6
CONTINUOUS
 62
     3
 10
40431.9
 20
6197.69
 30
0.0
 11
40459.6
 21
6133.4
 31
0.0
  0
LINE
  5
132
  8
0
  6
CONTINUOUS
 62
     3
 10
40413.6
 20
6189.77
 30
0.0
 11
40505.4
 21
6229.34
 31
0.0
  0
LINE
  5
133
  8
0
  6
CONTINUOUS
 62
     3
 10
40604.0
 20
5737.64
 30
0.0
 11
40600.5
 21
5692.56
 31
0.0
  0
LINE
  5
134
  8
0
  6
CONTINUOUS
 62
     3
 10
40585.5
 20
5693.71
 30
0.0
 11
40584.8
 21
5683.74
 31
0.0
  0
LINE
  5
135
  8
0
  6
CONTINUOUS
 62
     3
 10
40452.2
 20
6154.01
 30
0.0
 11
40603.4
 21
5731.03
 31
0.0
  0
LINE
  5
136
  8
0
  6
CONTINUOUS
 62
     3
 10
41260.3
 20
5592.47
 30
0.0
 11
41260.3
 21
5432.47
 31
0.0
  0
LINE
  5
137
  8
0
  6
CONTINUOUS
 62
     3
 10
41135.3
 20
5587.47
 30
0.0
 11
41140.3
 21
5592.47
 31
0.0
  0
LINE
  5
138
  8
0
  6
CONTINUOUS
 62
     3
 10
40925.3
 20
5672.47
 30
0.0
 11
40925.3
 21
5352.47
 31
0.0
  0
LINE
  5
139
  8
0
  6
CONTINUOUS
 62
     3
 10
41085.3
 20
5432.47
 30
0.0
 11
41260.3
 21
5432.47
 31
0.0
  0
LINE
  5
13A
  8
0
  6
CONTINUOUS
 62
     3
 10
41085.3
 20
5382.47
 30
0.0
 11
41265.3
 21
5382.47
 31
0.0
  0
LINE
  5
13B
  8
0
  6
CONTINUOUS
 62
     3
 10
41085.3
 20
5382.46
 30
0.0
 11
40945.3
 21
5352.46
 31
0.0
  0
LINE
  5
13C
  8
0
  6
CONTINUOUS
 62
     3
 10
40945.3
 20
5352.47
 30
0.0
 11
40925.3
 21
5352.47
 31
0.0
  0
LINE
  5
13D
  8
0
  6
CONTINUOUS
 62
     3
 10
41310.3
 20
5539.97
 30
0.0
 11
41310.3
 21
5484.97
 31
0.0
  0
LINE
  5
13E
  8
0
  6
CONTINUOUS
 62
     3
 10
41323.3
 20
5539.97
 30
0.0
 11
41323.3
 21
5484.97
 31
0.0
  0
LINE
  5
13F
  8
0
  6
CONTINUOUS
 62
     3
 10
41280.3
 20
5454.97
 30
0.0
 11
41260.3
 21
5454.97
 31
0.0
  0
LINE
  5
140
  8
0
  6
CONTINUOUS
 62
     3
 10
41280.3
 20
5441.97
 30
0.0
 11
41260.3
 21
5441.97
 31
0.0
  0
LINE
  5
141
  8
0
  6
CONTINUOUS
 62
     3
 10
41265.3
 20
5427.47
 30
0.0
 11
41265.3
 21
5382.47
 31
0.0
  0
LINE
  5
142
  8
0
  6
CONTINUOUS
 62
     3
 10
41135.3
 20
5450.02
 30
0.0
 11
41135.3
 21
5437.47
 31
0.0
  0
LINE
  5
143
  8
0
  6
CONTINUOUS
 62
     3
 10
41135.3
 20
5437.47
 30
0.0
 11
41140.3
 21
5432.47
 31
0.0
  0
LINE
  5
144
  8
0
  6
CONTINUOUS
 62
     3
 10
41188.3
 20
5362.47
 30
0.0
 11
41232.3
 21
5362.47
 31
0.0
  0
LINE
  5
145
  8
0
  6
CONTINUOUS
 62
     3
 10
41185.3
 20
5382.47
 30
0.0
 11
41185.3
 21
5373.66
 31
0.0
  0
LINE
  5
146
  8
0
  6
CONTINUOUS
 62
     3
 10
41235.3
 20
5382.47
 30
0.0
 11
41235.3
 21
5373.66
 31
0.0
  0
LINE
  5
147
  8
0
  6
CONTINUOUS
 62
     3
 10
41232.3
 20
5362.46
 30
0.0
 11
41235.3
 21
5373.66
 31
0.0
  0
LINE
  5
148
  8
0
  6
CONTINUOUS
 62
     3
 10
41188.3
 20
5362.47
 30
0.0
 11
41185.3
 21
5373.66
 31
0.0
  0
LINE
  5
149
  8
0
  6
CONTINUOUS
 62
     3
 10
41255.3
 20
5432.49
 30
0.0
 11
41265.3
 21
5427.49
 31
0.0
  0
LINE
  5
14A
  8
0
  6
CONTINUOUS
 62
     3
 10
41280.3
 20
5569.97
 30
0.0
 11
41260.3
 21
5569.97
 31
0.0
  0
LINE
  5
14B
  8
0
  6
CONTINUOUS
 62
     3
 10
41280.3
 20
5582.97
 30
0.0
 11
41260.3
 21
5582.97
 31
0.0
  0
LINE
  5
14C
  8
0
  6
CONTINUOUS
 62
     3
 10
41135.3
 20
5587.47
 30
0.0
 11
41135.3
 21
5574.92
 31
0.0
  0
LINE
  5
14D
  8
0
  6
CONTINUOUS
 62
     3
 10
41085.3
 20
5592.47
 30
0.0
 11
41260.3
 21
5592.47
 31
0.0
  0
LINE
  5
14E
  8
0
  6
CONTINUOUS
 62
     3
 10
41085.3
 20
5642.47
 30
0.0
 11
41265.3
 21
5642.47
 31
0.0
  0
LINE
  5
14F
  8
0
  6
CONTINUOUS
 62
     3
 10
40945.3
 20
5672.46
 30
0.0
 11
41085.3
 21
5642.46
 31
0.0
  0
LINE
  5
150
  8
0
  6
CONTINUOUS
 62
     3
 10
40663.1
 20
5741.62
 30
0.0
 11
40675.3
 21
5686.82
 31
0.0
  0
LINE
  5
151
  8
0
  6
CONTINUOUS
 62
     3
 10
40685.2
 20
5686.05
 30
0.0
 11
40684.5
 21
5676.08
 31
0.0
  0
LINE
  5
152
  8
0
  6
CONTINUOUS
 62
     3
 10
40925.3
 20
5672.47
 30
0.0
 11
40945.3
 21
5672.47
 31
0.0
  0
LINE
  5
153
  8
0
  6
CONTINUOUS
 62
     3
 10
41265.3
 20
5642.47
 30
0.0
 11
41265.3
 21
5597.47
 31
0.0
  0
LINE
  5
154
  8
0
  6
CONTINUOUS
 62
     3
 10
41265.3
 20
5597.46
 30
0.0
 11
41255.3
 21
5592.45
 31
0.0
  0
LINE
  5
155
  8
0
  6
CONTINUOUS
 62
     3
 10
41177.8
 20
5686.47
 30
0.0
 11
41177.8
 21
5642.47
 31
0.0
  0
LINE
  5
156
  8
0
  6
CONTINUOUS
 62
     3
 10
41242.8
 20
5686.47
 30
0.0
 11
41242.8
 21
5642.47
 31
0.0
  0
LINE
  5
157
  8
0
  6
CONTINUOUS
 62
     3
 10
41177.8
 20
5686.46
 30
0.0
 11
41178.8
 21
5687.46
 31
0.0
  0
LINE
  5
158
  8
0
  6
CONTINUOUS
 62
     3
 10
41241.8
 20
5687.47
 30
0.0
 11
41242.8
 21
5686.47
 31
0.0
  0
LINE
  5
159
  8
0
  6
CONTINUOUS
 62
     3
 10
41183.3
 20
5702.47
 30
0.0
 11
41237.3
 21
5702.47
 31
0.0
  0
LINE
  5
15A
  8
0
  6
CONTINUOUS
 62
     3
 10
41178.8
 20
5687.47
 30
0.0
 11
41241.8
 21
5687.47
 31
0.0
  0
LINE
  5
15B
  8
0
  6
CONTINUOUS
 62
     3
 10
41240.3
 20
5699.47
 30
0.0
 11
41240.3
 21
5687.47
 31
0.0
  0
LINE
  5
15C
  8
0
  6
CONTINUOUS
 62
     3
 10
41180.3
 20
5699.47
 30
0.0
 11
41180.3
 21
5687.47
 31
0.0
  0
LINE
  5
15D
  8
0
  6
CONTINUOUS
 62
     3
 10
41240.3
 20
5699.47
 30
0.0
 11
41237.3
 21
5702.47
 31
0.0
  0
LINE
  5
15E
  8
0
  6
CONTINUOUS
 62
     3
 10
41180.3
 20
5699.47
 30
0.0
 11
41183.3
 21
5702.46
 31
0.0
  0
LINE
  5
15F
  8
0
  6
CONTINUOUS
 62
     3
 10
40502.1
 20
6347.68
 30
0.0
 11
40703.9
 21
6434.66
 31
0.0
  0
LINE
  5
160
  8
0
  6
CONTINUOUS
 62
     3
 10
40366.1
 20
6299.97
 30
0.0
 11
40457.9
 21
6339.55
 31
0.0
  0
LINE
  5
161
  8
0
  6
CONTINUOUS
 62
     3
 10
40501.9
 20
6363.92
 30
0.0
 11
40455.9
 21
6344.14
 31
0.0
  0
LINE
  5
162
  8
0
  6
CONTINUOUS
 62
     3
 10
40688.2
 20
6449.64
 30
0.0
 11
40715.7
 21
6461.51
 31
0.0
  0
LINE
  5
163
  8
0
  6
CONTINUOUS
 62
     3
 10
40743.6
 20
6321.07
 30
0.0
 11
40688.2
 21
6449.64
 31
0.0
  0
LINE
  5
164
  8
0
  6
CONTINUOUS
 62
     3
 10
40771.1
 20
6332.95
 30
0.0
 11
40743.6
 21
6321.07
 31
0.0
  0
LINE
  5
165
  8
0
  6
CONTINUOUS
 62
     3
 10
40844.0
 20
6412.78
 30
0.0
 11
40771.1
 21
6332.94
 31
0.0
  0
LINE
  5
166
  8
0
  6
CONTINUOUS
 62
     3
 10
40823.8
 20
6459.65
 30
0.0
 11
40715.7
 21
6461.51
 31
0.0
  0
LINE
  5
167
  8
0
  6
CONTINUOUS
 62
     3
 10
41714.5
 20
5283.77
 30
0.0
 11
44368.0
 21
4944.97
 31
0.0
  0
LINE
  5
168
  8
0
  6
CONTINUOUS
 62
     3
 10
42030.947475
 20
5860.417475
 30
0.0
 11
42258.7
 21
6088.17
 31
0.0
  0
LINE
  5
16A
  8
0
  6
CONTINUOUS
 62
     3
 10
42129.7
 20
6021.07
 30
0.0
 11
42172.9
 21
6002.47
 31
0.0
  0
LINE
  5
16B
  8
0
  6
CONTINUOUS
 62
     3
 10
40891.9
 20
6186.07
 30
0.0
 11
41649.6
 21
6065.47
 31
0.0
  0
LINE
  5
16C
  8
0
  6
CONTINUOUS
 62
     3
 10
41655.9
 20
6065.87
 30
0.0
 11
41292.6
 21
6359.37
 31
0.0
  0
LINE
  5
16D
  8
0
  6
CONTINUOUS
 62
     3
 10
41507.2
 20
6088.07
 30
0.0
 11
41244.8
 21
6300.07
 31
0.0
  0
LINE
  5
16E
  8
0
  6
CONTINUOUS
 62
     3
 10
41369.7
 20
5802.17
 30
0.0
 11
41079.8
 21
6054.97
 31
0.0
  0
LINE
  5
16F
  8
0
  6
CONTINUOUS
 62
     3
 10
40876.2
 20
6087.37
 30
0.0
 11
41645.2
 21
5964.87
 31
0.0
  0
LINE
  5
170
  8
0
  6
CONTINUOUS
 62
     3
 10
41373.3
 20
5327.47
 30
0.0
 11
41085.3
 21
5375.66
 31
0.0
  0
LINE
  5
171
  8
0
  6
CONTINUOUS
 62
     3
 10
41385.3
 20
5312.47
 30
0.0
 11
41085.3
 21
5360.54
 31
0.0
  0
LINE
  5
172
  8
0
  6
CONTINUOUS
 62
     3
 10
41373.3
 20
5777.47
 30
0.0
 11
41035.5
 21
5637.85
 31
0.0
  0
LINE
  5
173
  8
0
  6
CONTINUOUS
 62
     3
 10
40946.6
 20
5452.74
 30
0.0
 11
40683.8
 21
6084.27
 31
0.0
  0
LINE
  5
174
  8
0
  6
CONTINUOUS
 62
     3
 10
41173.2
 20
5973.47
 30
0.0
 11
41198.5
 21
6036.07
 31
0.0
  0
LINE
  5
175
  8
0
  6
CONTINUOUS
 62
     3
 10
40876.2
 20
6087.37
 30
0.0
 11
40799.3
 21
6073.67
 31
0.0
  0
LINE
  5
176
  8
0
  6
CONTINUOUS
 62
     3
 10
41373.3
 20
5777.47
 30
0.0
 11
41373.3
 21
5327.47
 31
0.0
  0
LINE
  5
177
  8
0
  6
CONTINUOUS
 62
     3
 10
41395.3
 20
5802.47
 30
0.0
 11
41395.3
 21
5312.47
 31
0.0
  0
LINE
  5
178
  8
0
  6
CONTINUOUS
 62
     3
 10
41395.3
 20
5312.47
 30
0.0
 11
41714.5
 21
5283.77
 31
0.0
  0
LINE
  5
179
  8
0
  6
CONTINUOUS
 62
     3
 10
41385.3
 20
5312.47
 30
0.0
 11
41395.3
 21
5312.47
 31
0.0
  0
LINE
  5
17A
  8
0
  6
CONTINUOUS
 62
     3
 10
41395.3
 20
5802.47
 30
0.0
 11
41737.1
 21
5834.17
 31
0.0
  0
LINE
  5
17B
  8
0
  6
CONTINUOUS
 62
     3
 10
41686.6
 20
5943.17
 30
0.0
 11
41658.6
 21
5965.87
 31
0.0
  0
LINE
  5
17C
  8
0
  6
CONTINUOUS
 62
     3
 10
41645.2
 20
5964.87
 30
0.0
 11
41991.951859
 21
5989.88225
 31
0.0
  0
LINE
  5
17D
  8
0
  6
CONTINUOUS
 62
     3
 10
41649.6
 20
6065.47
 30
0.0
 11
41992.9
 21
6090.27
 31
0.0
  0
LINE
  5
17E
  8
0
  6
CONTINUOUS
 62
     3
 10
41369.7
 20
5802.17
 30
0.0
 11
41385.3
 21
5802.17
 31
0.0
  0
LINE
  5
17F
  8
0
  6
CONTINUOUS
 62
     3
 10
41385.3
 20
5802.47
 30
0.0
 11
41395.3
 21
5802.47
 31
0.0
  0
LINE
  5
180
  8
0
  6
CONTINUOUS
 62
     3
 10
42104.0
 20
5961.37
 30
0.0
 11
41991.951859
 21
5989.88225
 31
0.0
  0
LINE
  5
181
  8
0
  6
CONTINUOUS
 62
     3
 10
42127.7
 20
6016.47
 30
0.0
 11
41992.9
 21
6090.27
 31
0.0
  0
LINE
  5
183
  8
0
  6
CONTINUOUS
 62
     3
 10
41915.0
 20
5865.17
 30
0.0
 11
41916.4
 21
5850.17
 31
0.0
  0
LINE
  5
185
  8
0
  6
CONTINUOUS
 62
     3
 10
41813.5
 20
5947.47
 30
0.0
 11
41780.0
 21
5974.57
 31
0.0
  0
LINE
  5
186
  8
0
  6
CONTINUOUS
 62
     3
 10
41740.5
 20
5908.47
 30
0.0
 11
41747.0
 21
5835.07
 31
0.0
  0
LINE
  5
187
  8
0
  6
CONTINUOUS
 62
     3
 10
41682.3
 20
5937.77
 30
0.0
 11
41707.8
 21
5969.37
 31
0.0
  0
LINE
  5
188
  8
0
  6
CONTINUOUS
 62
     3
 10
41742.2
 20
5889.47
 30
0.0
 11
41682.3
 21
5937.77
 31
0.0
  0
LINE
  5
189
  8
0
  6
CONTINUOUS
 62
     3
 10
41813.7
 20
5947.37
 30
0.0
 11
41915.1
 21
5865.17
 31
0.0
  0
LINE
  5
18A
  8
0
  6
CONTINUOUS
 62
     3
 10
41737.1
 20
5834.17
 30
0.0
 11
42310.517324
 21
5885.389624
 31
0.0
  0
LINE
  5
18B
  8
0
  6
CONTINUOUS
 62
     3
 10
42129.7
 20
6021.07
 30
0.0
 11
42102.0
 21
5956.77
 31
0.0
  0
LINE
  5
18C
  8
0
  6
CONTINUOUS
 62
     3
 10
42102.0
 20
5956.77
 30
0.0
 11
42119.7
 21
5949.17
 31
0.0
  0
LINE
  5
18D
  8
0
  6
CONTINUOUS
 62
     3
 10
41042.3
 20
6494.17
 30
0.0
 11
41632.9
 21
7123.37
 31
0.0
  0
LINE
  5
18E
  8
0
  6
CONTINUOUS
 62
     3
 10
40968.3
 20
6590.67
 30
0.0
 11
41410.8
 21
7062.07
 31
0.0
  0
LINE
  5
18F
  8
0
  6
CONTINUOUS
 62
     3
 10
41552.9
 20
6969.57
 30
0.0
 11
41601.6
 21
7090.02
 31
0.0
  0
LINE
  5
190
  8
0
  6
CONTINUOUS
 62
     3
 10
41207.6
 20
6437.47
 30
0.0
 11
41237.6
 21
6511.77
 31
0.0
  0
LINE
  5
191
  8
0
  6
CONTINUOUS
 62
     3
 10
41085.5
 20
6540.27
 30
0.0
 11
41223.0
 21
6424.47
 31
0.0
  0
LINE
  5
192
  8
0
  6
CONTINUOUS
 62
     3
 10
41165.8
 20
6354.97
 30
0.0
 11
41240.4
 21
6294.67
 31
0.0
  0
LINE
  5
193
  8
0
  6
CONTINUOUS
 62
     3
 10
40968.3
 20
6590.67
 30
0.0
 11
40835.9
 21
6519.87
 31
0.0
  0
LINE
  5
194
  8
0
  6
CONTINUOUS
 62
     3
 10
40852.0
 20
6426.17
 30
0.0
 11
40823.5
 21
6479.47
 31
0.0
  0
LINE
  5
195
  8
0
  6
CONTINUOUS
 62
     3
 10
40972.0
 20
6418.67
 30
0.0
 11
40973.5
 21
6402.77
 31
0.0
  0
LINE
  5
196
  8
0
  6
CONTINUOUS
 62
     3
 10
41063.1
 20
6411.37
 30
0.0
 11
40973.5
 21
6402.77
 31
0.0
  0
LINE
  5
197
  8
0
  6
CONTINUOUS
 62
     3
 10
41056.2
 20
6410.77
 30
0.0
 11
41080.8
 21
6156.07
 31
0.0
  0
LINE
  5
198
  8
0
  6
CONTINUOUS
 62
     3
 10
40980.4
 20
6403.47
 30
0.0
 11
41003.0
 21
6168.37
 31
0.0
  0
LINE
  5
199
  8
0
  6
CONTINUOUS
 62
     3
 10
41181.3
 20
6343.57
 30
0.0
 11
41104.1
 21
6152.27
 31
0.0
  0
LINE
  5
19A
  8
0
  6
CONTINUOUS
 62
     3
 10
40891.9
 20
6186.07
 30
0.0
 11
40823.0
 21
6222.97
 31
0.0
  0
LINE
  5
19B
  8
0
  6
CONTINUOUS
 62
     3
 10
40937.7
 20
6178.87
 30
0.0
 11
40864.2
 21
6242.87
 31
0.0
  0
LINE
  5
19C
  8
0
  6
CONTINUOUS
 62
     3
 10
40972.0
 20
6418.67
 30
0.0
 11
40967.1
 21
6453.97
 31
0.0
  0
LINE
  5
19D
  8
0
  6
CONTINUOUS
 62
     3
 10
41042.3
 20
6494.17
 30
0.0
 11
40892.5
 21
6414.07
 31
0.0
  0
LINE
  5
19E
  8
0
  6
CONTINUOUS
 62
     3
 10
41061.6
 20
6427.37
 30
0.0
 11
41063.1
 21
6411.37
 31
0.0
  0
LINE
  5
19F
  8
0
  6
CONTINUOUS
 62
     3
 10
41066.6
 20
6427.87
 30
0.0
 11
41167.4
 21
6353.77
 31
0.0
  0
LINE
  5
1A0
  8
0
  6
CONTINUOUS
 62
     3
 10
41269.9
 20
6521.97
 30
0.0
 11
41421.9
 21
6898.57
 31
0.0
  0
LINE
  5
1A1
  8
0
  6
CONTINUOUS
 62
     3
 10
41362.7
 20
6484.57
 30
0.0
 11
41557.6
 21
6967.67
 31
0.0
  0
LINE
  5
1A2
  8
0
  6
CONTINUOUS
 62
     3
 10
41386.8
 20
6474.77
 30
0.0
 11
41245.8
 21
6531.67
 31
0.0
  0
LINE
  5
1A3
  8
0
  6
CONTINUOUS
 62
     3
 10
41333.9
 20
6343.07
 30
0.0
 11
41292.9
 21
6359.57
 31
0.0
  0
LINE
  5
1A4
  8
0
  6
CONTINUOUS
 62
     3
 10
41239.5
 20
6515.87
 30
0.0
 11
41245.8
 21
6531.67
 31
0.0
  0
LINE
  5
1A5
  8
0
  6
CONTINUOUS
 62
     3
 10
41238.7
 20
6514.57
 30
0.0
 11
41239.3
 21
6515.97
 31
0.0
  0
LINE
  5
1A6
  8
0
  6
CONTINUOUS
 62
     3
 10
41240.6
 20
6510.57
 30
0.0
 11
41241.7
 21
6513.37
 31
0.0
  0
LINE
  5
1A7
  8
0
  6
CONTINUOUS
 62
     3
 10
41240.4
 20
6294.67
 30
0.0
 11
41297.0
 21
6364.67
 31
0.0
  0
LINE
  5
1A8
  8
0
  6
CONTINUOUS
 62
     3
 10
41236.9
 20
6131.17
 30
0.0
 11
41290.2
 21
6263.37
 31
0.0
  0
LINE
  5
1A9
  8
0
  6
CONTINUOUS
 62
     3
 10
41222.3
 20
6425.07
 30
0.0
 11
41297.0
 21
6364.67
 31
0.0
  0
LINE
  5
1AA
  8
0
  6
CONTINUOUS
 62
     3
 10
41380.4
 20
6459.07
 30
0.0
 11
41386.8
 21
6474.77
 31
0.0
  0
LINE
  5
1AB
  8
0
  6
CONTINUOUS
 62
     3
 10
41380.1
 20
6457.57
 30
0.0
 11
41380.6
 21
6458.97
 31
0.0
  0
LINE
  5
1AC
  8
0
  6
CONTINUOUS
 62
     3
 10
41376.0
 20
6455.97
 30
0.0
 11
41377.1
 21
6458.77
 31
0.0
  0
LINE
  5
1AD
  8
0
  6
CONTINUOUS
 62
     3
 10
41320.0
 20
6337.27
 30
0.0
 11
41323.9
 21
6347.07
 31
0.0
  0
LINE
  5
1AE
  8
0
  6
CONTINUOUS
 62
     3
 10
41333.9
 20
6343.07
 30
0.0
 11
41378.9
 21
6454.77
 31
0.0
  0
LINE
  5
1AF
  8
0
  6
CONTINUOUS
 62
     3
 10
41506.2
 20
6988.47
 30
0.0
 11
41557.6
 21
6967.67
 31
0.0
  0
LINE
  5
1B0
  8
0
  6
CONTINUOUS
 62
     3
 10
41848.2
 20
7545.17
 30
0.0
 11
41633.0
 21
7123.47
 31
0.0
  0
LINE
  5
1B1
  8
0
  6
CONTINUOUS
 62
     3
 10
41696.8
 20
7622.47
 30
0.0
 11
41410.8
 21
7062.17
 31
0.0
  0
LINE
  5
1B2
  8
0
  6
CONTINUOUS
 62
     3
 10
41835.1
 20
7629.57
 30
0.0
 11
41829.9
 21
7619.37
 31
0.0
  0
LINE
  5
1B3
  8
0
  6
CONTINUOUS
 62
     3
 10
41772.8
 20
7661.47
 30
0.0
 11
41835.1
 21
7629.57
 31
0.0
  0
LINE
  5
1B4
  8
0
  6
CONTINUOUS
 62
     3
 10
41696.7
 20
7622.47
 30
0.0
 11
41772.8
 21
7661.47
 31
0.0
  0
LINE
  5
1B5
  8
0
  6
CONTINUOUS
 62
     3
 10
41836.6
 20
7620.37
 30
0.0
 11
41848.2
 21
7545.17
 31
0.0
  0
LINE
  5
1B6
  8
0
  6
CONTINUOUS
 62
     3
 10
44676.2
 20
6096.27
 30
0.0
 11
45076.0
 21
6132.07
 31
0.0
  0
LINE
  5
1B7
  8
0
  6
CONTINUOUS
 62
     3
 10
42757.4
 20
5913.44
 30
0.0
 11
44677.1
 21
6085.37
 31
0.0
  0
LINE
  5
1B8
  8
0
  6
CONTINUOUS
 62
     3
 10
44173.5
 20
5154.07
 30
0.0
 11
42360.4
 21
5935.27
 31
0.0
  0
LINE
  5
1B9
  8
0
  6
CONTINUOUS
 62
     3
 10
44135.9
 20
5066.87
 30
0.0
 11
42248.906623
 21
5879.886342
 31
0.0
  0
LINE
  5
1BA
  8
0
  6
CONTINUOUS
 62
     3
 10
42812.035917
 20
5740.676222
 30
0.0
 11
44692.9
 21
5909.07
 31
0.0
  0
LINE
  5
1BB
  8
0
  6
CONTINUOUS
 62
     3
 10
43179.219355
 20
5582.47
 30
0.0
 11
44763.2
 21
5582.47
 31
0.0
  0
LINE
  5
1BC
  8
0
  6
CONTINUOUS
 62
     3
 10
43411.311009
 20
5482.47
 30
0.0
 11
44763.2
 21
5482.47
 31
0.0
  0
LINE
  5
1BD
  8
0
  6
CONTINUOUS
 62
     3
 10
43967.4
 20
5028.37
 30
0.0
 11
44123.2
 21
5072.27
 31
0.0
  0
LINE
  5
1BE
  8
0
  6
CONTINUOUS
 62
     3
 10
43965.4
 20
5013.47
 30
0.0
 11
44370.2
 21
4961.87
 31
0.0
  0
LINE
  5
1BF
  8
0
  6
CONTINUOUS
 62
     3
 10
44026.6
 20
5217.36
 30
0.0
 11
44396.8
 21
5170.17
 31
0.0
  0
LINE
  5
1C0
  8
0
  6
CONTINUOUS
 62
     3
 10
43967.3
 20
5028.37
 30
0.0
 11
43965.4
 21
5013.47
 31
0.0
  0
LINE
  5
1C1
  8
0
  6
CONTINUOUS
 62
     3
 10
42203.233472
 20
5450.177427
 30
0.0
 11
43685.3
 21
5260.97
 31
0.0
  0
LINE
  5
1C2
  8
0
  6
CONTINUOUS
 62
     3
 10
42200.3
 20
5482.47
 30
0.0
 11
43171.2
 21
5482.47
 31
0.0
  0
LINE
  5
1C3
  8
0
  6
CONTINUOUS
 62
     3
 10
42182.3
 20
5684.27
 30
0.0
 11
42203.233472
 21
5450.177427
 31
0.0
  0
LINE
  5
1C4
  8
0
  6
CONTINUOUS
 62
     3
 10
42191.4
 20
5582.47
 30
0.0
 11
42939.1
 21
5582.47
 31
0.0
  0
LINE
  5
1C6
  8
0
  6
CONTINUOUS
 62
     3
 10
42258.8
 20
6088.17
 30
0.0
 11
42757.4
 21
5913.44
 31
0.0
  0
LINE
  5
1C7
  8
0
  6
CONTINUOUS
 62
     3
 10
42310.517324
 20
5885.389624
 30
0.0
 11
42447.2
 21
6022.17
 31
0.0
  0
LINE
  5
1C8
  8
0
  6
CONTINUOUS
 62
     3
 10
42182.3
 20
5684.27
 30
0.0
 11
42613.3
 21
5722.87
 31
0.0
  0
LINE
  5
1CC
  8
0
  6
CONTINUOUS
 62
     3
 10
44763.2
 20
5892.47
 30
0.0
 11
44763.2
 21
4882.47
 31
0.0
  0
LINE
  5
1CD
  8
0
  6
CONTINUOUS
 62
     3
 10
44885.3
 20
5777.47
 30
0.0
 11
44885.3
 21
5171.37
 31
0.0
  0
LINE
  5
1CE
  8
0
  6
CONTINUOUS
 62
     3
 10
44763.2
 20
5194.8
 30
0.0
 11
45165.3
 21
5117.47
 31
0.0
  0
LINE
  5
1CF
  8
0
  6
CONTINUOUS
 62
     3
 10
44775.3
 20
4882.47
 30
0.0
 11
45165.3
 21
4907.47
 31
0.0
  0
LINE
  5
1D0
  8
0
  6
CONTINUOUS
 62
     3
 10
44397.8
 20
5178.27
 30
0.0
 11
44763.2
 21
5183.87
 31
0.0
  0
LINE
  5
1D1
  8
0
  6
CONTINUOUS
 62
     3
 10
44366.5
 20
4933.07
 30
0.0
 11
44763.3
 21
4882.37
 31
0.0
  0
LINE
  5
1D2
  8
0
  6
CONTINUOUS
 62
     3
 10
44397.8
 20
5178.27
 30
0.0
 11
44366.5
 21
4933.07
 31
0.0
  0
LINE
  5
1D3
  8
0
  6
CONTINUOUS
 62
     3
 10
44140.3
 20
5077.17
 30
0.0
 11
44149.9
 21
5079.87
 31
0.0
  0
LINE
  5
1D4
  8
0
  6
CONTINUOUS
 62
     3
 10
44213.2
 20
5167.97
 30
0.0
 11
44154.6
 21
5031.87
 31
0.0
  0
LINE
  5
1D5
  8
0
  6
CONTINUOUS
 62
     3
 10
44259.1
 20
5148.17
 30
0.0
 11
44213.2
 21
5167.97
 31
0.0
  0
LINE
  5
1D6
  8
0
  6
CONTINUOUS
 62
     3
 10
44142.8
 20
5082.87
 30
0.0
 11
44171.3
 21
5070.67
 31
0.0
  0
LINE
  5
1D7
  8
0
  6
CONTINUOUS
 62
     3
 10
44166.5
 20
5137.97
 30
0.0
 11
44195.0
 21
5125.77
 31
0.0
  0
LINE
  5
1D8
  8
0
  6
CONTINUOUS
 62
     3
 10
44216.1
 20
5111.47
 30
0.0
 11
44196.3
 21
5065.47
 31
0.0
  0
LINE
  5
1D9
  8
0
  6
CONTINUOUS
 62
     3
 10
44135.9
 20
5066.87
 30
0.0
 11
44173.5
 21
5154.07
 31
0.0
  0
LINE
  5
1DA
  8
0
  6
CONTINUOUS
 62
     3
 10
44257.4
 20
4959.07
 30
0.0
 11
44256.1
 21
4949.17
 31
0.0
  0
LINE
  5
1DB
  8
0
  6
CONTINUOUS
 62
     3
 10
44200.5
 20
5012.07
 30
0.0
 11
44154.6
 21
5031.87
 31
0.0
  0
LINE
  5
1DC
  8
0
  6
CONTINUOUS
 62
     3
 10
44259.1
 20
5148.17
 30
0.0
 11
44200.5
 21
5012.07
 31
0.0
  0
LINE
  5
1DD
  8
0
  6
CONTINUOUS
 62
     3
 10
44240.7
 20
5105.47
 30
0.0
 11
44394.0
 21
5148.67
 31
0.0
  0
LINE
  5
1DE
  8
0
  6
CONTINUOUS
 62
     3
 10
44256.1
 20
4949.17
 30
0.0
 11
44366.7
 21
4935.07
 31
0.0
  0
LINE
  5
1DF
  8
0
  6
CONTINUOUS
 62
     3
 10
44763.2
 20
5171.87
 30
0.0
 11
44763.3
 21
5167.87
 31
0.0
  0
LINE
  5
1E0
  8
0
  6
CONTINUOUS
 62
     3
 10
44763.0
 20
5171.87
 30
0.0
 11
44763.3
 21
5167.87
 31
0.0
  0
LINE
  5
1E1
  8
0
  6
CONTINUOUS
 62
     3
 10
44763.2
 20
4882.47
 30
0.0
 11
44775.2
 21
4882.47
 31
0.0
  0
LINE
  5
1E2
  8
0
  6
CONTINUOUS
 62
     3
 10
45069.9
 20
5070.47
 30
0.0
 11
45158.0
 21
5094.07
 31
0.0
  0
LINE
  5
1E3
  8
0
  6
CONTINUOUS
 62
     3
 10
45165.3
 20
5117.47
 30
0.0
 11
45165.3
 21
5103.77
 31
0.0
  0
LINE
  5
1E4
  8
0
  6
CONTINUOUS
 62
     3
 10
45069.8
 20
4954.57
 30
0.0
 11
45157.9
 21
4930.97
 31
0.0
  0
LINE
  5
1E5
  8
0
  6
CONTINUOUS
 62
     3
 10
45165.3
 20
4921.27
 30
0.0
 11
45165.3
 21
4907.47
 31
0.0
  0
LINE
  5
1E6
  8
0
  6
CONTINUOUS
 62
     3
 10
45165.3
 20
4921.27
 30
0.0
 11
45165.3
 21
4907.47
 31
0.0
  0
LINE
  5
1E7
  8
0
  6
CONTINUOUS
 62
     3
 10
44694.4
 20
5892.47
 30
0.0
 11
45085.3
 21
5892.47
 31
0.0
  0
LINE
  5
1E8
  8
0
  6
CONTINUOUS
 62
     3
 10
44985.4
 20
5877.47
 30
0.0
 11
44885.4
 21
5777.47
 31
0.0
  0
LINE
  5
1E9
  8
0
  6
CONTINUOUS
 62
     3
 10
44275.0
 20
6002.17
 30
0.0
 11
44683.2
 21
5928.27
 31
0.0
  0
LINE
  5
1EA
  8
0
  6
CONTINUOUS
 62
     3
 10
44218.2
 20
6053.27
 30
0.0
 11
44676.3
 21
6094.27
 31
0.0
  0
LINE
  5
1EB
  8
0
  6
CONTINUOUS
 62
     3
 10
44272.3
 20
6032.07
 30
0.0
 11
44670.7
 21
6067.67
 31
0.0
  0
LINE
  5
1EC
  8
0
  6
CONTINUOUS
 62
     3
 10
44218.2
 20
6053.27
 30
0.0
 11
44219.0
 21
6044.37
 31
0.0
  0
LINE
  5
1ED
  8
0
  6
CONTINUOUS
 62
     3
 10
44272.3
 20
6032.07
 30
0.0
 11
44274.9
 21
6002.17
 31
0.0
  0
LINE
  5
1EE
  8
0
  6
CONTINUOUS
 62
     3
 10
44676.2
 20
6096.27
 30
0.0
 11
44694.4
 21
5892.47
 31
0.0
  0
LINE
  5
1EF
  8
0
  6
CONTINUOUS
 62
     3
 10
44670.7
 20
6067.67
 30
0.0
 11
44683.2
 21
5928.27
 31
0.0
  0
LINE
  5
1F0
  8
0
  6
CONTINUOUS
 62
     3
 10
44985.3
 20
5892.47
 30
0.0
 11
44985.3
 21
5877.47
 31
0.0
  0
LINE
  5
1F1
  8
0
  6
CONTINUOUS
 62
     3
 10
43753.9
 20
13517.7
 30
0.0
 11
41027.2
 21
6413.05
 31
0.0
  0
LINE
  5
1F2
  8
0
  6
CONTINUOUS
 62
     3
 10
43503.591232
 20
13613.155721
 30
0.0
 11
40778.5
 21
6508.57
 31
0.0
  0
LINE
  5
1F3
  8
0
  6
CONTINUOUS
 62
     3
 10
43271.8
 20
13496.7
 30
0.0
 11
43476.034094
 21
13541.311503
 31
0.0
  0
LINE
  5
1F4
  8
0
  6
CONTINUOUS
 62
     3
 10
36703.018925
 20
12587.971221
 30
0.0
 11
40534.8
 21
6760.95
 31
0.0
  0
LINE
  5
1F5
  8
0
  6
CONTINUOUS
 62
     3
 10
36494.081075
 20
12450.628779
 30
0.0
 11
40325.9
 21
6623.55
 31
0.0
  0
LINE
  5
1F6
  8
0
  6
CONTINUOUS
 62
     3
 10
40541.0
 20
6765.05
 30
0.0
 11
40319.6
 21
6619.45
 31
0.0
  0
LINE
  5
1F7
  8
0
  6
CONTINUOUS
 62
     3
 10
40476.4
 20
6476.05
 30
0.0
 11
40328.4
 21
6606.15
 31
0.0
  0
LINE
  5
1F8
  8
0
  6
CONTINUOUS
 62
     3
 10
40319.6
 20
6619.45
 30
0.0
 11
40328.4
 21
6606.05
 31
0.0
  0
LINE
  5
1F9
  8
0
  6
CONTINUOUS
 62
     3
 10
41027.2
 20
6413.05
 30
0.0
 11
40679.5
 21
6546.55
 31
0.0
  0
LINE
  5
1FA
  8
0
  6
CONTINUOUS
 62
     3
 10
41027.3
 20
6413.05
 30
0.0
 11
40836.4
 21
6045.84
 31
0.0
  0
LINE
  5
1FB
  8
0
  6
CONTINUOUS
 62
     3
 10
40470.3
 20
6485.95
 30
0.0
 11
40708.4
 21
6105.65
 31
0.0
  0
LINE
  5
1FC
  8
0
  6
CONTINUOUS
 62
     3
 10
40708.4
 20
6105.65
 30
0.0
 11
40822.7
 21
6041.72
 31
0.0
  0
LINE
  5
1FD
  8
0
  6
CONTINUOUS
 62
     3
 10
40603.9
 20
6584.85
 30
0.0
 11
40549.8
 21
6751.65
 31
0.0
  0
LINE
  5
1FE
  8
0
  6
CONTINUOUS
 62
     3
 10
40541.0
 20
6765.05
 30
0.0
 11
40549.8
 21
6751.65
 31
0.0
  0
LINE
  5
1FF
  8
0
  6
CONTINUOUS
 62
     3
 10
40679.5
 20
6546.55
 30
0.0
 11
40574.2
 21
6599.85
 31
0.0
  0
LINE
  5
200
  8
0
  6
CONTINUOUS
 62
     3
 10
40278.8
 20
7267.59
 30
0.0
 11
41003.0
 21
7343.31
 31
0.0
  0
LINE
  5
201
  8
0
  6
CONTINUOUS
 62
     3
 10
40269.4
 20
7343.25
 30
0.0
 11
41027.5
 21
7422.5
 31
0.0
  0
LINE
  5
202
  8
0
  6
CONTINUOUS
 62
     3
 10
40159.1
 20
7332.4
 30
0.0
 11
40174.8
 21
7342.85
 31
0.0
  0
LINE
  5
203
  8
0
  6
CONTINUOUS
 62
     3
 10
40174.8
 20
7342.85
 30
0.0
 11
40260.9
 21
7344.05
 31
0.0
  0
LINE
  5
204
  8
0
  6
CONTINUOUS
 62
     3
 10
40224.9
 20
7232.22
 30
0.0
 11
40283.4
 21
7270.65
 31
0.0
  0
LINE
  5
205
  8
0
  6
CONTINUOUS
 62
     3
 10
41055.3
 20
7494.85
 30
0.0
 11
41005.1
 21
7364.15
 31
0.0
  0
LINE
  5
206
  8
0
  6
CONTINUOUS
 62
     3
 10
41079.5
 20
7292.75
 30
0.0
 11
41028.1
 21
7312.45
 31
0.0
  0
LINE
  5
207
  8
0
  6
CONTINUOUS
 62
     3
 10
41158.3
 20
7498.15
 30
0.0
 11
41107.0
 21
7517.85
 31
0.0
  0
LINE
  5
208
  8
0
  6
CONTINUOUS
 62
     3
 10
41686.4
 20
8151.25
 30
0.0
 11
41453.0
 21
8240.85
 31
0.0
  0
LINE
  5
209
  8
0
  6
CONTINUOUS
 62
     3
 10
41688.9
 20
8157.75
 30
0.0
 11
41455.5
 21
8247.35
 31
0.0
  0
LINE
  5
20A
  8
0
  6
CONTINUOUS
 62
     3
 10
39731.0
 20
12831.6
 30
0.0
 11
37132.2
 21
12443.4
 31
0.0
  0
LINE
  5
20B
  8
0
  6
CONTINUOUS
 62
     3
 10
36703.018925
 20
12587.971221
 30
0.0
 11
36494.081075
 21
12450.628779
 31
0.0
  0
LINE
  5
20C
  8
0
  6
CONTINUOUS
 62
     3
 10
36663.8
 20
12083.4
 30
0.0
 11
36713.9
 21
12116.4
 31
0.0
  0
LINE
  5
20D
  8
0
  6
CONTINUOUS
 62
     3
 10
36595.7
 20
12277.9
 30
0.0
 11
36604.1
 21
12283.4
 31
0.0
  0
LINE
  5
20E
  8
0
  6
CONTINUOUS
 62
     3
 10
36609.6
 20
12109.8
 30
0.0
 11
36595.7
 21
12277.9
 31
0.0
  0
LINE
  5
20F
  8
0
  6
CONTINUOUS
 62
     3
 10
36855.2
 20
12356.5
 30
0.0
 11
36974.5
 21
12374.3
 31
0.0
  0
LINE
  5
211
  8
0
  6
CONTINUOUS
 62
     3
 10
37101.8
 20
12433.7
 30
0.0
 11
37001.9
 21
12383.1
 31
0.0
  0
LINE
  5
212
  8
0
  6
CONTINUOUS
 62
     3
 10
39717.7
 20
12920.6
 30
0.0
 11
37118.9
 21
12532.4
 31
0.0
  0
LINE
  5
213
  8
0
  6
CONTINUOUS
 62
     3
 10
37087.0
 20
12532.8
 30
0.0
 11
36976.6
 21
12552.0
 31
0.0
  0
LINE
  5
214
  8
0
  6
CONTINUOUS
 62
     3
 10
36746.3
 20
12522.1
 30
0.0
 11
36949.558835
 21
12552.544055
 31
0.0
  0
LINE
  5
215
  8
0
  6
CONTINUOUS
 62
     3
 10
43123.5
 20
13444.4
 30
0.0
 11
40038.7
 21
12983.7
 31
0.0
  0
LINE
  5
216
  8
0
  6
CONTINUOUS
 62
     3
 10
43135.9
 20
13335.1
 30
0.0
 11
40058.6
 21
12875.4
 31
0.0
  0
LINE
  5
217
  8
0
  6
CONTINUOUS
 62
     3
 10
39748.2
 20
12930.3
 30
0.0
 11
39848.1
 21
12980.9
 31
0.0
  0
LINE
  5
218
  8
0
  6
CONTINUOUS
 62
     3
 10
40031.5
 20
12867.3
 30
0.0
 11
39926.4
 21
12818.9
 31
0.0
  0
LINE
  5
219
  8
0
  6
CONTINUOUS
 62
     3
 10
39762.9
 20
12831.2
 30
0.0
 11
39873.2
 21
12811.9
 31
0.0
  0
LINE
  5
21B
  8
0
  6
CONTINUOUS
 62
     3
 10
40017.7
 20
12982.8
 30
0.0
 11
39894.3
 21
12990.4
 31
0.0
  0
LINE
  5
21C
  8
0
  6
CONTINUOUS
 62
     3
 10
43164.1
 20
13335.2
 30
0.0
 11
43278.8
 21
13319.6
 31
0.0
  0
LINE
  5
21E
  8
0
  6
CONTINUOUS
 62
     3
 10
43143.7
 20
13449.6
 30
0.0
 11
43259.4
 21
13493.1
 31
0.0
  0
LINE
  5
21F
  8
0
  6
CONTINUOUS
 62
     3
 10
43912.1
 20
12877.5
 30
0.0
 11
43791.0
 21
13117.7
 31
0.0
  0
LINE
  5
220
  8
0
  6
CONTINUOUS
 62
     3
 10
43857.6
 20
12850.1
 30
0.0
 11
43736.5
 21
13090.2
 31
0.0
  0
LINE
  5
221
  8
0
  6
CONTINUOUS
 62
     3
 10
43912.1
 20
12877.5
 30
0.0
 11
43857.6
 21
12850.1
 31
0.0
  0
LINE
  5
223
  8
0
  6
CONTINUOUS
 62
     3
 10
43689.8
 20
13350.5
 30
0.0
 11
43801.159892
 21
13129.579568
 31
0.0
  0
LINE
  5
224
  8
0
  6
CONTINUOUS
 62
     3
 10
43745.0
 20
13241.2
 30
0.0
 11
43755.7
 21
13246.6
 31
0.0
  0
LINE
  5
225
  8
0
  6
CONTINUOUS
 62
     3
 10
43784.2
 20
13125.5
 30
0.0
 11
43681.546677
 21
13329.177229
 31
0.0
  0
LINE
  5
227
  8
0
  6
CONTINUOUS
 62
     3
 10
43703.4
 20
13097.1
 30
0.0
 11
43653.9
 21
13195.3
 31
0.0
  0
LINE
  5
228
  8
0
  6
CONTINUOUS
 62
     3
 10
43691.3
 20
13121.2
 30
0.0
 11
43685.1
 21
13118.1
 31
0.0
  0
LINE
  5
229
  8
0
  6
CONTINUOUS
 62
     3
 10
43720.9
 20
13089.1
 30
0.0
 11
43646.2
 21
13237.0
 31
0.0
  0
LINE
  5
22A
  8
0
  6
CONTINUOUS
 62
     3
 10
43734.2
 20
13100.3
 30
0.0
 11
43654.441199
 21
13258.551589
 31
0.0
  0
LINE
  5
22B
  8
0
  6
CONTINUOUS
 62
     3
 10
43658.0
 20
13162.7
 30
0.0
 11
43679.7
 21
13119.8
 31
0.0
  0
LINE
  5
22C
  8
0
  6
CONTINUOUS
 62
     3
 10
43653.9
 20
13195.3
 30
0.0
 11
43664.6
 21
13200.7
 31
0.0
  0
LINE
  5
22D
  8
0
  6
CONTINUOUS
 62
     3
 10
43658.1
 20
13162.7
 30
0.0
 11
43659.8
 21
13168.1
 31
0.0
  0
LINE
  5
22E
  8
0
  6
CONTINUOUS
 62
     3
 10
43666.1
 20
13171.2
 30
0.0
 11
43659.9
 21
13168.1
 31
0.0
  0
LINE
  5
22F
  8
0
  6
CONTINUOUS
 62
     3
 10
43679.7
 20
13119.8
 30
0.0
 11
43685.0
 21
13118.1
 31
0.0
  0
LINE
  5
230
  8
0
  6
CONTINUOUS
 62
     3
 10
43297.1
 20
13319.0
 30
0.0
 11
43393.799404
 21
13326.91743
 31
0.0
  0
LINE
  5
231
  8
0
  6
CONTINUOUS
 62
     3
 10
43714.1
 20
13102.5
 30
0.0
 11
43703.4
 21
13097.1
 31
0.0
  0
LINE
  5
232
  8
0
  6
CONTINUOUS
 62
     3
 10
43731.045933
 20
13106.558069
 30
0.0
 11
43726.2
 21
13091.8
 31
0.0
  0
LINE
  5
233
  8
0
  6
CONTINUOUS
 62
     3
 10
43726.2
 20
13091.8
 30
0.0
 11
43720.9
 21
13089.1
 31
0.0
  0
LINE
  5
234
  8
0
  6
CONTINUOUS
 62
     3
 10
43734.2
 20
13100.3
 30
0.0
 11
43732.0
 21
13093.6
 31
0.0
  0
LINE
  5
235
  8
0
  6
CONTINUOUS
 62
     3
 10
43736.5
 20
13090.2
 30
0.0
 11
43732.0
 21
13093.6
 31
0.0
  0
LINE
  5
236
  8
0
  6
CONTINUOUS
 62
     3
 10
43858.9
 20
13270.7
 30
0.0
 11
43885.9
 21
13217.1
 31
0.0
  0
LINE
  5
237
  8
0
  6
CONTINUOUS
 62
     3
 10
43850.9
 20
13266.7
 30
0.0
 11
43877.9
 21
13213.1
 31
0.0
  0
LINE
  5
238
  8
0
  6
CONTINUOUS
 62
     3
 10
43824.1
 20
13253.2
 30
0.0
 11
43851.1
 21
13199.6
 31
0.0
  0
LINE
  5
239
  8
0
  6
CONTINUOUS
 62
     3
 10
43804.3
 20
13250.4
 30
0.0
 11
43764.0
 21
13230.1
 31
0.0
  0
LINE
  5
23A
  8
0
  6
CONTINUOUS
 62
     3
 10
43804.2
 20
13250.4
 30
0.0
 11
43837.1
 21
13185.2
 31
0.0
  0
LINE
  5
23B
  8
0
  6
CONTINUOUS
 62
     3
 10
43841.8
 20
13189.3
 30
0.0
 11
43836.4
 21
13186.6
 31
0.0
  0
LINE
  5
23C
  8
0
  6
CONTINUOUS
 62
     3
 10
43841.8
 20
13189.3
 30
0.0
 11
43843.5
 21
13194.7
 31
0.0
  0
LINE
  5
23D
  8
0
  6
CONTINUOUS
 62
     3
 10
43801.159892
 20
13129.579568
 30
0.0
 11
43795.781343
 21
13126.839552
 31
0.0
  0
LINE
  5
23E
  8
0
  6
CONTINUOUS
 62
     3
 10
43805.2
 20
13148.4
 30
0.0
 11
43794.5
 21
13143.0
 31
0.0
  0
LINE
  5
23F
  8
0
  6
CONTINUOUS
 62
     3
 10
43790.9
 20
13123.3
 30
0.0
 11
43784.2
 21
13125.5
 31
0.0
  0
LINE
  5
240
  8
0
  6
CONTINUOUS
 62
     3
 10
43790.9
 20
13123.3
 30
0.0
 11
43791.0
 21
13117.7
 31
0.0
  0
LINE
  5
241
  8
0
  6
CONTINUOUS
 62
     3
 10
43781.05
 20
13131.75
 30
0.0
 11
43795.781343
 21
13126.839552
 31
0.0
  0
LINE
  5
242
  8
0
  6
CONTINUOUS
 62
     3
 10
43755.7
 20
13246.6
 30
0.0
 11
43805.2
 21
13148.4
 31
0.0
  0
LINE
  5
243
  8
0
  6
CONTINUOUS
 62
     3
 10
43837.1
 20
13185.2
 30
0.0
 11
43796.9
 21
13164.9
 31
0.0
  0
LINE
  5
244
  8
0
  6
CONTINUOUS
 62
     3
 10
43810.3
 20
13251.8
 30
0.0
 11
43804.9
 21
13249.1
 31
0.0
  0
LINE
  5
245
  8
0
  6
CONTINUOUS
 62
     3
 10
43810.3
 20
13251.8
 30
0.0
 11
43815.6
 21
13250.0
 31
0.0
  0
LINE
  5
247
  8
0
  6
CONTINUOUS
 62
     3
 10
43503.591232
 20
13613.155721
 30
0.0
 11
43753.9
 21
13517.8
 31
0.0
  0
LINE
  5
249
  8
0
  6
CONTINUOUS
 62
     7
 10
30518.1
 20
18121.4
 30
0.0
 11
42518.1
 21
18121.4
 31
0.0
  0
LINE
  5
24A
  8
0
  6
CONTINUOUS
 62
     7
 10
30518.1
 20
18921.4
 30
0.0
 11
42518.1
 21
18921.4
 31
0.0
  0
LINE
  5
24B
  8
0
  6
CONTINUOUS
 62
     7
 10
30518.1
 20
19721.4
 30
0.0
 11
42518.1
 21
19721.4
 31
0.0
  0
LINE
  5
24C
  8
0
  6
CONTINUOUS
 62
     7
 10
30518.1
 20
20521.4
 30
0.0
 11
42518.1
 21
20521.4
 31
0.0
  0
LINE
  5
24D
  8
0
  6
CONTINUOUS
 62
     7
 10
30518.1
 20
20521.4
 30
0.0
 11
30518.1
 21
18121.4
 31
0.0
  0
LINE
  5
24E
  8
0
  6
CONTINUOUS
 62
     7
 10
34939.6
 20
20521.4
 30
0.0
 11
34939.6
 21
18121.4
 31
0.0
  0
LINE
  5
24F
  8
0
  6
CONTINUOUS
 62
     7
 10
42518.1
 20
20521.4
 30
0.0
 11
42518.1
 21
18121.4
 31
0.0
  0
LINE
  5
250
  8
0
  6
CONTINUOUS
 62
     3
 10
25234.5
 20
11051.4
 30
0.0
 11
25234.5
 21
11015.4
 31
0.0
  0
LINE
  5
251
  8
0
  6
CONTINUOUS
 62
     3
 10
24955.5
 20
11247.4
 30
0.0
 11
24955.5
 21
10991.4
 31
0.0
  0
LINE
  5
252
  8
0
  6
CONTINUOUS
 62
     3
 10
23755.5
 20
10973.4
 30
0.0
 11
21194.5
 21
10755.5
 31
0.0
  0
LINE
  5
253
  8
0
  6
CONTINUOUS
 62
     3
 10
21399.0
 20
10695.0
 30
0.0
 11
21194.5
 21
10679.229845
 31
0.0
  0
LINE
  5
254
  8
0
  6
CONTINUOUS
 62
     3
 10
21154.5
 20
10761.4
 30
0.0
 11
21154.5
 21
10677.4
 31
0.0
  0
LINE
  5
256
  8
0
  6
CONTINUOUS
 62
     3
 10
21194.5
 20
10761.4
 30
0.0
 11
21194.5
 21
10677.4
 31
0.0
  0
LINE
  5
257
  8
0
  6
CONTINUOUS
 62
     3
 10
21154.5
 20
10677.4
 30
0.0
 11
21194.5
 21
10677.4
 31
0.0
  0
LINE
  5
258
  8
0
  6
CONTINUOUS
 62
     3
 10
21154.5
 20
10761.4
 30
0.0
 11
21194.5
 21
10761.4
 31
0.0
  0
LINE
  5
25A
  8
0
  6
CONTINUOUS
 62
     3
 10
21154.5
 20
10677.4
 30
0.0
 11
21097.4
 21
10669.5
 31
0.0
  0
LINE
  5
25B
  8
0
  6
CONTINUOUS
 62
     3
 10
21154.4
 20
10761.4
 30
0.0
 11
21097.4
 21
10769.3
 31
0.0
  0
LINE
  5
25C
  8
0
  6
CONTINUOUS
 62
     3
 10
24955.5
 20
11003.3
 30
0.0
 11
21398.7
 21
10699.0
 31
0.0
  0
LINE
  5
25D
  8
0
  6
CONTINUOUS
 62
     3
 10
21532.7
 20
10781.4
 30
0.0
 11
21532.7
 21
10781.4
 31
0.0
  0
LINE
  5
25E
  8
0
  6
CONTINUOUS
 62
     3
 10
21398.7
 20
10699.2
 30
0.0
 11
21399.0
 21
10695.0
 31
0.0
  0
LINE
  5
25F
  8
0
  6
CONTINUOUS
 62
     3
 10
25090.5
 20
11015.4
 30
0.0
 11
25234.5
 21
11015.4
 31
0.0
  0
LINE
  5
260
  8
0
  6
CONTINUOUS
 62
     3
 10
25208.1
 20
10999.4
 30
0.0
 11
25210.5
 21
11008.3
 31
0.0
  0
LINE
  5
261
  8
0
  6
CONTINUOUS
 62
     3
 10
25210.5
 20
11015.4
 30
0.0
 11
25210.5
 21
11008.3
 31
0.0
  0
LINE
  5
262
  8
0
  6
CONTINUOUS
 62
     3
 10
25090.5
 20
11015.4
 30
0.0
 11
25005.5
 21
10991.4
 31
0.0
  0
LINE
  5
263
  8
0
  6
CONTINUOUS
 62
     3
 10
25170.5
 20
11015.4
 30
0.0
 11
25170.5
 21
11008.3
 31
0.0
  0
LINE
  5
264
  8
0
  6
CONTINUOUS
 62
     3
 10
25172.9
 20
10999.4
 30
0.0
 11
25170.5
 21
11008.3
 31
0.0
  0
LINE
  5
265
  8
0
  6
CONTINUOUS
 62
     3
 10
25005.5
 20
10991.4
 30
0.0
 11
24955.5
 21
10991.4
 31
0.0
  0
LINE
  5
266
  8
0
  6
CONTINUOUS
 62
     3
 10
25172.9
 20
10999.4
 30
0.0
 11
25208.1
 21
10999.4
 31
0.0
  0
LINE
  5
267
  8
0
  6
CONTINUOUS
 62
     3
 10
21194.5
 20
11483.3
 30
0.0
 11
23755.5
 21
11265.4
 31
0.0
  0
LINE
  5
268
  8
0
  6
CONTINUOUS
 62
     3
 10
21194.5
 20
11559.491324
 30
0.0
 11
21399.0
 21
11543.8
 31
0.0
  0
LINE
  5
269
  8
0
  6
CONTINUOUS
 62
     3
 10
21154.4
 20
11561.4
 30
0.0
 11
21097.4
 21
11569.3
 31
0.0
  0
LINE
  5
26A
  8
0
  6
CONTINUOUS
 62
     3
 10
21154.5
 20
11561.4
 30
0.0
 11
21194.5
 21
11561.4
 31
0.0
  0
LINE
  5
26D
  8
0
  6
CONTINUOUS
 62
     3
 10
21154.5
 20
11477.4
 30
0.0
 11
21194.5
 21
11477.4
 31
0.0
  0
LINE
  5
26E
  8
0
  6
CONTINUOUS
 62
     3
 10
21154.5
 20
11477.4
 30
0.0
 11
21097.4
 21
11469.5
 31
0.0
  0
LINE
  5
26F
  8
0
  6
CONTINUOUS
 62
     3
 10
21194.5
 20
11561.4
 30
0.0
 11
21194.5
 21
11477.4
 31
0.0
  0
LINE
  5
270
  8
0
  6
CONTINUOUS
 62
     3
 10
21154.5
 20
11561.4
 30
0.0
 11
21154.5
 21
11477.4
 31
0.0
  0
LINE
  5
271
  8
0
  6
CONTINUOUS
 62
     3
 10
21398.690539
 20
11539.800809
 30
0.0
 11
24955.5
 21
11235.5
 31
0.0
  0
LINE
  5
273
  8
0
  6
CONTINUOUS
 62
     3
 10
21399.0
 20
11543.8
 30
0.0
 11
21398.690539
 21
11539.800809
 31
0.0
  0
LINE
  5
274
  8
0
  6
CONTINUOUS
 62
     3
 10
25215.7
 20
11259.4
 30
0.0
 11
25216.5
 21
11258.6
 31
0.0
  0
LINE
  5
275
  8
0
  6
CONTINUOUS
 62
     3
 10
25090.5
 20
11223.4
 30
0.0
 11
25234.5
 21
11223.4
 31
0.0
  0
LINE
  5
276
  8
0
  6
CONTINUOUS
 62
     3
 10
25090.5
 20
11183.4
 30
0.0
 11
25230.5
 21
11183.4
 31
0.0
  0
LINE
  5
277
  8
0
  6
CONTINUOUS
 62
     3
 10
25090.5
 20
11055.4
 30
0.0
 11
25230.5
 21
11055.4
 31
0.0
  0
LINE
  5
279
  8
0
  6
CONTINUOUS
 62
     3
 10
25214.5
 20
11269.0
 30
0.0
 11
25212.1
 21
11271.4
 31
0.0
  0
LINE
  5
27A
  8
0
  6
CONTINUOUS
 62
     3
 10
25214.5
 20
11269.0
 30
0.0
 11
25214.5
 21
11259.4
 31
0.0
  0
LINE
  5
27B
  8
0
  6
CONTINUOUS
 62
     3
 10
25005.5
 20
11247.4
 30
0.0
 11
25090.5
 21
11223.4
 31
0.0
  0
LINE
  5
27C
  8
0
  6
CONTINUOUS
 62
     3
 10
25164.5
 20
11258.6
 30
0.0
 11
25164.5
 21
11223.4
 31
0.0
  0
LINE
  5
27D
  8
0
  6
CONTINUOUS
 62
     3
 10
25130.5
 20
11179.4
 30
0.0
 11
25134.5
 21
11183.4
 31
0.0
  0
LINE
  5
27E
  8
0
  6
CONTINUOUS
 62
     3
 10
25130.5
 20
11179.4
 30
0.0
 11
25130.5
 21
11169.3
 31
0.0
  0
LINE
  5
27F
  8
0
  6
CONTINUOUS
 62
     3
 10
25166.5
 20
11269.0
 30
0.0
 11
25168.9
 21
11271.4
 31
0.0
  0
LINE
  5
280
  8
0
  6
CONTINUOUS
 62
     3
 10
25166.5
 20
11269.0
 30
0.0
 11
25166.5
 21
11259.4
 31
0.0
  0
LINE
  5
281
  8
0
  6
CONTINUOUS
 62
     3
 10
25164.5
 20
11258.6
 30
0.0
 11
25165.3
 21
11259.4
 31
0.0
  0
LINE
  5
282
  8
0
  6
CONTINUOUS
 62
     3
 10
25130.5
 20
11059.4
 30
0.0
 11
25134.5
 21
11055.4
 31
0.0
  0
LINE
  5
283
  8
0
  6
CONTINUOUS
 62
     3
 10
25130.5
 20
11069.4
 30
0.0
 11
25130.5
 21
11059.4
 31
0.0
  0
LINE
  5
284
  8
0
  6
CONTINUOUS
 62
     3
 10
24955.5
 20
11247.4
 30
0.0
 11
25005.5
 21
11247.4
 31
0.0
  0
LINE
  5
285
  8
0
  6
CONTINUOUS
 62
     3
 10
24982.5
 20
11247.4
 30
0.0
 11
25048.3
 21
11350.3
 31
0.0
  0
LINE
  5
286
  8
0
  6
CONTINUOUS
 62
     3
 10
25157.3
 20
11223.4
 30
0.0
 11
25139.8
 21
11331.4
 31
0.0
  0
LINE
  5
287
  8
0
  6
CONTINUOUS
 62
     3
 10
25165.3
 20
11259.4
 30
0.0
 11
25215.7
 21
11259.4
 31
0.0
  0
LINE
  5
288
  8
0
  6
CONTINUOUS
 62
     3
 10
25168.9
 20
11271.4
 30
0.0
 11
25212.1
 21
11271.4
 31
0.0
  0
LINE
  5
289
  8
0
  6
CONTINUOUS
 62
     3
 10
25246.5
 20
11175.8
 30
0.0
 11
25230.5
 21
11175.8
 31
0.0
  0
LINE
  5
28A
  8
0
  6
CONTINUOUS
 62
     3
 10
25246.5
 20
11165.4
 30
0.0
 11
25230.5
 21
11165.4
 31
0.0
  0
LINE
  5
28B
  8
0
  6
CONTINUOUS
 62
     3
 10
25246.5
 20
11063.0
 30
0.0
 11
25230.5
 21
11063.0
 31
0.0
  0
LINE
  5
28C
  8
0
  6
CONTINUOUS
 62
     3
 10
25246.5
 20
11073.4
 30
0.0
 11
25230.5
 21
11073.4
 31
0.0
  0
LINE
  5
28D
  8
0
  6
CONTINUOUS
 62
     3
 10
25216.5
 20
11258.6
 30
0.0
 11
25216.5
 21
11223.4
 31
0.0
  0
LINE
  5
28E
  8
0
  6
CONTINUOUS
 62
     3
 10
25234.5
 20
11187.4
 30
0.0
 11
25226.5
 21
11183.4
 31
0.0
  0
LINE
  5
28F
  8
0
  6
CONTINUOUS
 62
     3
 10
25234.5
 20
11223.4
 30
0.0
 11
25234.5
 21
11187.4
 31
0.0
  0
LINE
  5
290
  8
0
  6
CONTINUOUS
 62
     3
 10
25226.5
 20
11055.4
 30
0.0
 11
25234.5
 21
11051.4
 31
0.0
  0
LINE
  5
291
  8
0
  6
CONTINUOUS
 62
     3
 10
25230.5
 20
11183.4
 30
0.0
 11
25230.5
 21
11055.4
 31
0.0
  0
LINE
  5
292
  8
0
  6
CONTINUOUS
 62
     3
 10
25280.9
 20
11141.4
 30
0.0
 11
25280.9
 21
11097.4
 31
0.0
  0
LINE
  5
293
  8
0
  6
CONTINUOUS
 62
     3
 10
25270.5
 20
11141.4
 30
0.0
 11
25270.5
 21
11097.4
 31
0.0
  0
LINE
  5
294
  8
0
  6
CONTINUOUS
 62
     3
 10
16399.3
 20
10683.4
 30
0.0
 11
20781.7
 21
10683.4
 31
0.0
  0
LINE
  5
295
  8
0
  6
CONTINUOUS
 62
     3
 10
16194.5
 20
10755.4
 30
0.0
 11
20986.5
 21
10755.4
 31
0.0
  0
LINE
  5
296
  8
0
  6
CONTINUOUS
 62
     3
 10
20986.5
 20
11483.4
 30
0.0
 11
16194.5
 21
11483.4
 31
0.0
  0
LINE
  5
297
  8
0
  6
CONTINUOUS
 62
     3
 10
20781.7
 20
11555.4
 30
0.0
 11
16399.3
 21
11555.4
 31
0.0
  0
LINE
  5
298
  8
0
  6
CONTINUOUS
 62
     3
 10
16194.5
 20
10679.4
 30
0.0
 11
16399.3
 21
10679.4
 31
0.0
  0
LINE
  5
29A
  8
0
  6
CONTINUOUS
 62
     3
 10
16194.5
 20
10761.4
 30
0.0
 11
16194.5
 21
10677.4
 31
0.0
  0
LINE
  5
29C
  8
0
  6
CONTINUOUS
 62
     3
 10
16399.3
 20
10683.4
 30
0.0
 11
16399.3
 21
10679.4
 31
0.0
  0
LINE
  5
29D
  8
0
  6
CONTINUOUS
 62
     3
 10
16154.5
 20
10761.4
 30
0.0
 11
16154.5
 21
10677.4
 31
0.0
  0
LINE
  5
29E
  8
0
  6
CONTINUOUS
 62
     3
 10
16154.5
 20
10761.4
 30
0.0
 11
16097.3
 21
10769.3
 31
0.0
  0
LINE
  5
29F
  8
0
  6
CONTINUOUS
 62
     3
 10
16154.5
 20
10677.4
 30
0.0
 11
16097.3
 21
10669.5
 31
0.0
  0
LINE
  5
2A0
  8
0
  6
CONTINUOUS
 62
     3
 10
16154.5
 20
10677.4
 30
0.0
 11
16194.5
 21
10677.4
 31
0.0
  0
LINE
  5
2A1
  8
0
  6
CONTINUOUS
 62
     3
 10
16154.5
 20
10761.4
 30
0.0
 11
16194.5
 21
10761.4
 31
0.0
  0
LINE
  5
2A2
  8
0
  6
CONTINUOUS
 62
     3
 10
16399.3
 20
11559.4
 30
0.0
 11
16194.5
 21
11559.4
 31
0.0
  0
LINE
  5
2A3
  8
0
  6
CONTINUOUS
 62
     3
 10
16194.5
 20
11561.4
 30
0.0
 11
16194.5
 21
11477.4
 31
0.0
  0
LINE
  5
2A7
  8
0
  6
CONTINUOUS
 62
     3
 10
16399.3
 20
11559.4
 30
0.0
 11
16399.3
 21
11555.4
 31
0.0
  0
LINE
  5
2A8
  8
0
  6
CONTINUOUS
 62
     3
 10
16154.5
 20
11561.4
 30
0.0
 11
16154.5
 21
11477.4
 31
0.0
  0
LINE
  5
2A9
  8
0
  6
CONTINUOUS
 62
     3
 10
16154.5
 20
11561.4
 30
0.0
 11
16097.3
 21
11569.3
 31
0.0
  0
LINE
  5
2AA
  8
0
  6
CONTINUOUS
 62
     3
 10
16154.5
 20
11477.4
 30
0.0
 11
16097.3
 21
11469.5
 31
0.0
  0
LINE
  5
2AB
  8
0
  6
CONTINUOUS
 62
     3
 10
16154.5
 20
11477.4
 30
0.0
 11
16194.5
 21
11477.4
 31
0.0
  0
LINE
  5
2AC
  8
0
  6
CONTINUOUS
 62
     3
 10
16154.5
 20
11561.4
 30
0.0
 11
16194.5
 21
11561.4
 31
0.0
  0
LINE
  5
2AD
  8
0
  6
CONTINUOUS
 62
     3
 10
20781.7
 20
10679.4
 30
0.0
 11
20986.5
 21
10679.4
 31
0.0
  0
LINE
  5
2AE
  8
0
  6
CONTINUOUS
 62
     3
 10
20781.7
 20
10679.4
 30
0.0
 11
20781.7
 21
10683.4
 31
0.0
  0
LINE
  5
2B0
  8
0
  6
CONTINUOUS
 62
     3
 10
21026.5
 20
10677.4
 30
0.0
 11
21026.5
 21
10761.4
 31
0.0
  0
LINE
  5
2B2
  8
0
  6
CONTINUOUS
 62
     3
 10
20986.5
 20
10677.4
 30
0.0
 11
20986.5
 21
10761.4
 31
0.0
  0
LINE
  5
2B3
  8
0
  6
CONTINUOUS
 62
     3
 10
20986.5
 20
10761.4
 30
0.0
 11
21026.5
 21
10761.4
 31
0.0
  0
LINE
  5
2B4
  8
0
  6
CONTINUOUS
 62
     3
 10
20986.5
 20
10677.4
 30
0.0
 11
21026.5
 21
10677.4
 31
0.0
  0
LINE
  5
2B5
  8
0
  6
CONTINUOUS
 62
     3
 10
21026.5
 20
10677.4
 30
0.0
 11
21083.6
 21
10669.5
 31
0.0
  0
LINE
  5
2B6
  8
0
  6
CONTINUOUS
 62
     3
 10
21026.5
 20
10761.4
 30
0.0
 11
21083.6
 21
10769.3
 31
0.0
  0
LINE
  5
2B7
  8
0
  6
CONTINUOUS
 62
     3
 10
20986.5
 20
11559.4
 30
0.0
 11
20781.7
 21
11559.4
 31
0.0
  0
LINE
  5
2B8
  8
0
  6
CONTINUOUS
 62
     3
 10
20781.7
 20
11555.4
 30
0.0
 11
20781.7
 21
11559.4
 31
0.0
  0
LINE
  5
2BB
  8
0
  6
CONTINUOUS
 62
     3
 10
20986.5
 20
11561.4
 30
0.0
 11
21026.5
 21
11561.4
 31
0.0
  0
LINE
  5
2BC
  8
0
  6
CONTINUOUS
 62
     3
 10
20986.5
 20
11477.4
 30
0.0
 11
21026.5
 21
11477.4
 31
0.0
  0
LINE
  5
2BD
  8
0
  6
CONTINUOUS
 62
     3
 10
21026.5
 20
11477.4
 30
0.0
 11
21026.5
 21
11561.4
 31
0.0
  0
LINE
  5
2BE
  8
0
  6
CONTINUOUS
 62
     3
 10
20986.5
 20
11477.4
 30
0.0
 11
20986.5
 21
11561.4
 31
0.0
  0
LINE
  5
2BF
  8
0
  6
CONTINUOUS
 62
     3
 10
21026.5
 20
11561.4
 30
0.0
 11
21083.6
 21
11569.3
 31
0.0
  0
LINE
  5
2C0
  8
0
  6
CONTINUOUS
 62
     3
 10
21026.5
 20
11477.4
 30
0.0
 11
21083.6
 21
11469.5
 31
0.0
  0
LINE
  5
2C1
  8
0
  6
CONTINUOUS
 62
     3
 10
11399.3
 20
10683.4
 30
0.0
 11
15781.7
 21
10683.4
 31
0.0
  0
LINE
  5
2C2
  8
0
  6
CONTINUOUS
 62
     3
 10
11194.5
 20
10755.4
 30
0.0
 11
15986.5
 21
10755.4
 31
0.0
  0
LINE
  5
2C3
  8
0
  6
CONTINUOUS
 62
     3
 10
15986.5
 20
11483.4
 30
0.0
 11
11194.5
 21
11483.4
 31
0.0
  0
LINE
  5
2C4
  8
0
  6
CONTINUOUS
 62
     3
 10
15781.7
 20
11555.4
 30
0.0
 11
11399.3
 21
11555.4
 31
0.0
  0
LINE
  5
2C5
  8
0
  6
CONTINUOUS
 62
     3
 10
11194.5
 20
10679.4
 30
0.0
 11
11399.3
 21
10679.4
 31
0.0
  0
LINE
  5
2C7
  8
0
  6
CONTINUOUS
 62
     3
 10
11194.5
 20
10761.4
 30
0.0
 11
11194.5
 21
10677.4
 31
0.0
  0
LINE
  5
2C9
  8
0
  6
CONTINUOUS
 62
     3
 10
11399.3
 20
10683.4
 30
0.0
 11
11399.3
 21
10679.4
 31
0.0
  0
LINE
  5
2CA
  8
0
  6
CONTINUOUS
 62
     3
 10
11154.5
 20
10761.4
 30
0.0
 11
11154.5
 21
10677.4
 31
0.0
  0
LINE
  5
2CB
  8
0
  6
CONTINUOUS
 62
     3
 10
11154.5
 20
10761.4
 30
0.0
 11
11097.3
 21
10769.3
 31
0.0
  0
LINE
  5
2CC
  8
0
  6
CONTINUOUS
 62
     3
 10
11154.5
 20
10677.4
 30
0.0
 11
11097.3
 21
10669.5
 31
0.0
  0
LINE
  5
2CD
  8
0
  6
CONTINUOUS
 62
     3
 10
11154.5
 20
10677.4
 30
0.0
 11
11194.5
 21
10677.4
 31
0.0
  0
LINE
  5
2CE
  8
0
  6
CONTINUOUS
 62
     3
 10
11154.5
 20
10761.4
 30
0.0
 11
11194.5
 21
10761.4
 31
0.0
  0
LINE
  5
2CF
  8
0
  6
CONTINUOUS
 62
     3
 10
11399.3
 20
11559.4
 30
0.0
 11
11194.5
 21
11559.4
 31
0.0
  0
LINE
  5
2D0
  8
0
  6
CONTINUOUS
 62
     3
 10
11194.5
 20
11561.4
 30
0.0
 11
11194.5
 21
11477.4
 31
0.0
  0
LINE
  5
2D4
  8
0
  6
CONTINUOUS
 62
     3
 10
11399.3
 20
11559.4
 30
0.0
 11
11399.3
 21
11555.4
 31
0.0
  0
LINE
  5
2D5
  8
0
  6
CONTINUOUS
 62
     3
 10
11154.5
 20
11561.4
 30
0.0
 11
11154.5
 21
11477.4
 31
0.0
  0
LINE
  5
2D6
  8
0
  6
CONTINUOUS
 62
     3
 10
11154.5
 20
11561.4
 30
0.0
 11
11097.3
 21
11569.3
 31
0.0
  0
LINE
  5
2D7
  8
0
  6
CONTINUOUS
 62
     3
 10
11154.5
 20
11477.4
 30
0.0
 11
11097.3
 21
11469.5
 31
0.0
  0
LINE
  5
2D8
  8
0
  6
CONTINUOUS
 62
     3
 10
11154.5
 20
11477.4
 30
0.0
 11
11194.5
 21
11477.4
 31
0.0
  0
LINE
  5
2D9
  8
0
  6
CONTINUOUS
 62
     3
 10
11154.5
 20
11561.4
 30
0.0
 11
11194.5
 21
11561.4
 31
0.0
  0
LINE
  5
2DA
  8
0
  6
CONTINUOUS
 62
     3
 10
15781.7
 20
10679.4
 30
0.0
 11
15986.5
 21
10679.4
 31
0.0
  0
LINE
  5
2DB
  8
0
  6
CONTINUOUS
 62
     3
 10
15781.7
 20
10679.4
 30
0.0
 11
15781.7
 21
10683.4
 31
0.0
  0
LINE
  5
2DD
  8
0
  6
CONTINUOUS
 62
     3
 10
16026.5
 20
10677.4
 30
0.0
 11
16026.5
 21
10761.4
 31
0.0
  0
LINE
  5
2DF
  8
0
  6
CONTINUOUS
 62
     3
 10
15986.5
 20
10677.4
 30
0.0
 11
15986.5
 21
10761.4
 31
0.0
  0
LINE
  5
2E0
  8
0
  6
CONTINUOUS
 62
     3
 10
15986.5
 20
10761.4
 30
0.0
 11
16026.5
 21
10761.4
 31
0.0
  0
LINE
  5
2E1
  8
0
  6
CONTINUOUS
 62
     3
 10
15986.5
 20
10677.4
 30
0.0
 11
16026.5
 21
10677.4
 31
0.0
  0
LINE
  5
2E2
  8
0
  6
CONTINUOUS
 62
     3
 10
16026.5
 20
10677.4
 30
0.0
 11
16083.6
 21
10669.5
 31
0.0
  0
LINE
  5
2E3
  8
0
  6
CONTINUOUS
 62
     3
 10
16026.5
 20
10761.4
 30
0.0
 11
16083.6
 21
10769.3
 31
0.0
  0
LINE
  5
2E4
  8
0
  6
CONTINUOUS
 62
     3
 10
15986.5
 20
11559.4
 30
0.0
 11
15781.7
 21
11559.4
 31
0.0
  0
LINE
  5
2E5
  8
0
  6
CONTINUOUS
 62
     3
 10
15781.7
 20
11555.4
 30
0.0
 11
15781.7
 21
11559.4
 31
0.0
  0
LINE
  5
2E8
  8
0
  6
CONTINUOUS
 62
     3
 10
15986.5
 20
11561.4
 30
0.0
 11
16026.5
 21
11561.4
 31
0.0
  0
LINE
  5
2E9
  8
0
  6
CONTINUOUS
 62
     3
 10
15986.5
 20
11477.4
 30
0.0
 11
16026.5
 21
11477.4
 31
0.0
  0
LINE
  5
2EA
  8
0
  6
CONTINUOUS
 62
     3
 10
16026.5
 20
11477.4
 30
0.0
 11
16026.5
 21
11561.4
 31
0.0
  0
LINE
  5
2EB
  8
0
  6
CONTINUOUS
 62
     3
 10
15986.5
 20
11477.4
 30
0.0
 11
15986.5
 21
11561.4
 31
0.0
  0
LINE
  5
2EC
  8
0
  6
CONTINUOUS
 62
     3
 10
16026.5
 20
11561.4
 30
0.0
 11
16083.6
 21
11569.3
 31
0.0
  0
LINE
  5
2ED
  8
0
  6
CONTINUOUS
 62
     3
 10
16026.5
 20
11477.4
 30
0.0
 11
16083.6
 21
11469.5
 31
0.0
  0
LINE
  5
2EE
  8
0
  6
CONTINUOUS
 62
     3
 10
10782.062083
 20
11542.597284
 30
0.0
 11
7880.86
 21
11334.8
 31
0.0
  0
LINE
  5
2EF
  8
0
  6
CONTINUOUS
 62
     3
 10
10782.1
 20
10696.2
 30
0.0
 11
7880.86
 21
10903.9
 31
0.0
  0
LINE
  5
2F0
  8
0
  6
CONTINUOUS
 62
     3
 10
10986.5
 20
10755.4
 30
0.0
 11
8367.34
 21
10920.3
 31
0.0
  0
LINE
  5
2F1
  8
0
  6
CONTINUOUS
 62
     3
 10
10986.5
 20
11483.3
 30
0.0
 11
8367.34
 21
11318.5
 31
0.0
  0
LINE
  5
2F2
  8
0
  6
CONTINUOUS
 62
     3
 10
7273.66
 20
10762.1
 30
0.0
 11
7562.609679
 21
10928.840209
 31
0.0
  0
LINE
  5
2F3
  8
0
  6
CONTINUOUS
 62
     3
 10
7880.86
 20
11347.4
 30
0.0
 11
7304.03
 21
11437.1
 31
0.0
  0
LINE
  5
2F4
  8
0
  6
CONTINUOUS
 62
     3
 10
7880.86
 20
10904.9
 30
0.0
 11
7562.609679
 21
10928.840209
 31
0.0
  0
LINE
  5
2F5
  8
0
  6
CONTINUOUS
 62
     3
 10
7880.86
 20
11334.8
 30
0.0
 11
6724.06
 21
11253.9
 31
0.0
  0
LINE
  5
2F6
  8
0
  6
CONTINUOUS
 62
     3
 10
6724.06
 20
11253.9
 30
0.0
 11
6724.06
 21
11079.4
 31
0.0
  0
LINE
  5
2F8
  8
0
  6
CONTINUOUS
 62
     3
 10
7103.567294
 20
11280.440578
 30
0.0
 11
7280.0
 21
11430.4
 31
0.0
  0
LINE
  5
2F9
  8
0
  6
CONTINUOUS
 62
     3
 10
8190.440803
 20
11203.09405
 30
0.0
 11
8447.82
 21
11371.4
 31
0.0
  0
LINE
  5
2FA
  8
0
  6
CONTINUOUS
 62
     3
 10
8447.82
 20
10867.4
 30
0.0
 11
8190.440803
 21
11035.705952
 31
0.0
  0
LINE
  5
2FB
  8
0
  6
CONTINUOUS
 62
     3
 10
7880.86
 20
11347.4
 30
0.0
 11
7880.86
 21
10904.9
 31
0.0
  0
LINE
  5
2FC
  8
0
  6
CONTINUOUS
 62
     3
 10
8447.82
 20
10867.4
 30
0.0
 11
8447.82
 21
10863.3
 31
0.0
  0
LINE
  5
2FD
  8
0
  6
CONTINUOUS
 62
     3
 10
10782.062083
 20
11542.597284
 30
0.0
 11
10781.8
 21
11546.6
 31
0.0
  0
LINE
  5
2FE
  8
0
  6
CONTINUOUS
 62
     3
 10
11026.5
 20
10677.4
 30
0.0
 11
11083.6
 21
10669.5
 31
0.0
  0
LINE
  5
2FF
  8
0
  6
CONTINUOUS
 62
     3
 10
11026.5
 20
10761.4
 30
0.0
 11
11083.6
 21
10769.3
 31
0.0
  0
LINE
  5
300
  8
0
  6
CONTINUOUS
 62
     3
 10
11026.5
 20
10677.4
 30
0.0
 11
11026.5
 21
10761.4
 31
0.0
  0
LINE
  5
305
  8
0
  6
CONTINUOUS
 62
     3
 10
10981.4
 20
10755.8
 30
0.0
 11
10981.7
 21
10759.8
 31
0.0
  0
LINE
  5
307
  8
0
  6
CONTINUOUS
 62
     3
 10
10786.6
 20
10768.0
 30
0.0
 11
10786.9
 21
10772.0
 31
0.0
  0
LINE
  5
308
  8
0
  6
CONTINUOUS
 62
     3
 10
10981.4
 20
10679.6
 30
0.0
 11
10781.8
 21
10692.2
 31
0.0
  0
LINE
  5
309
  8
0
  6
CONTINUOUS
 62
     3
 10
10981.7
 20
10759.8
 30
0.0
 11
10786.9
 21
10772.0
 31
0.0
  0
LINE
  5
30A
  8
0
  6
CONTINUOUS
 62
     3
 10
11026.5
 20
11477.4
 30
0.0
 11
11083.6
 21
11469.5
 31
0.0
  0
LINE
  5
30B
  8
0
  6
CONTINUOUS
 62
     3
 10
10986.5
 20
11483.3
 30
0.0
 11
10986.5
 21
11477.4
 31
0.0
  0
LINE
  5
30C
  8
0
  6
CONTINUOUS
 62
     3
 10
10986.5
 20
11477.4
 30
0.0
 11
11026.5
 21
11477.4
 31
0.0
  0
LINE
  5
30D
  8
0
  6
CONTINUOUS
 62
     3
 10
11026.5
 20
11561.4
 30
0.0
 11
11083.6
 21
11569.3
 31
0.0
  0
LINE
  5
30F
  8
0
  6
CONTINUOUS
 62
     3
 10
10781.8
 20
11546.6
 30
0.0
 11
10984.5
 21
11559.3
 31
0.0
  0
LINE
  5
310
  8
0
  6
CONTINUOUS
 62
     3
 10
25040.5
 20
11423.4
 30
0.0
 11
25040.5
 21
15873.4
 31
0.0
  0
LINE
  5
311
  8
0
  6
CONTINUOUS
 62
     3
 10
25140.5
 20
11423.4
 30
0.0
 11
25140.5
 21
15873.4
 31
0.0
  0
LINE
  5
312
  8
0
  6
CONTINUOUS
 62
     3
 10
25040.5
 20
11423.4
 30
0.0
 11
25140.5
 21
11423.4
 31
0.0
  0
LINE
  5
313
  8
0
  6
CONTINUOUS
 62
     3
 10
25040.5
 20
11423.4
 30
0.0
 11
25050.7
 21
11319.5
 31
0.0
  0
LINE
  5
314
  8
0
  6
CONTINUOUS
 62
     3
 10
25140.5
 20
11423.4
 30
0.0
 11
25130.3
 21
11319.5
 31
0.0
  0
LINE
  5
315
  8
0
  6
CONTINUOUS
 62
     3
 10
25040.5
 20
15873.4
 30
0.0
 11
25140.5
 21
15873.4
 31
0.0
  0
LINE
  5
393
  8
0
  6
CONTINUOUS
 62
     3
 10
36069.6
 20
5084.8
 30
0.0
 11
35958.7
 21
5440.69
 31
0.0
  0
LINE
  5
394
  8
0
  6
CONTINUOUS
 62
     3
 10
36113.3
 20
5088.16
 30
0.0
 11
35981.1
 21
5512.48
 31
0.0
  0
LINE
  5
395
  8
0
  6
CONTINUOUS
 62
     3
 10
36184.0
 20
5093.57
 30
0.0
 11
36291.3
 21
5440.27
 31
0.0
  0
LINE
  5
396
  8
0
  6
CONTINUOUS
 62
     3
 10
36138.2
 20
5934.86
 30
0.0
 11
36393.7
 21
5109.68
 31
0.0
  0
LINE
  5
397
  8
0
  6
CONTINUOUS
 62
     3
 10
36184.0
 20
5931.35
 30
0.0
 11
36437.3
 21
5113.03
 31
0.0
  0
LINE
  5
398
  8
0
  6
CONTINUOUS
 62
     3
 10
36462.2
 20
5114.93
 30
0.0
 11
36717.5
 21
5890.38
 31
0.0
  0
LINE
  5
399
  8
0
  6
CONTINUOUS
 62
     3
 10
36508.4
 20
5118.47
 30
0.0
 11
36761.4
 21
5887.01
 31
0.0
  0
LINE
  5
39A
  8
0
  6
CONTINUOUS
 62
     3
 10
36462.3
 20
5909.99
 30
0.0
 11
36593.1
 21
5512.47
 31
0.0
  0
LINE
  5
39B
  8
0
  6
CONTINUOUS
 62
     3
 10
36508.4
 20
5906.45
 30
0.0
 11
36615.6
 21
5580.74
 31
0.0
  0
LINE
  5
39C
  8
0
  6
CONTINUOUS
 62
     3
 10
36786.3
 20
5139.8
 30
0.0
 11
36917.2
 21
5512.46
 31
0.0
  0
LINE
  5
39D
  8
0
  6
CONTINUOUS
 62
     3
 10
36832.8
 20
5143.38
 30
0.0
 11
36939.9
 21
5448.07
 31
0.0
  0
LINE
  5
39E
  8
0
  6
CONTINUOUS
 62
     3
 10
36786.3
 20
5885.11
 30
0.0
 11
37041.3
 21
5159.4
 31
0.0
  0
LINE
  5
39F
  8
0
  6
CONTINUOUS
 62
     3
 10
36832.8
 20
5881.54
 30
0.0
 11
37085.4
 21
5162.79
 31
0.0
  0
LINE
  5
3A0
  8
0
  6
CONTINUOUS
 62
     3
 10
37365.1
 20
5840.66
 30
0.0
 11
37110.3
 21
5164.69
 31
0.0
  0
LINE
  5
3A1
  8
0
  6
CONTINUOUS
 62
     3
 10
37409.4
 20
5837.26
 30
0.0
 11
37157.3
 21
5168.3
 31
0.0
  0
LINE
  5
3A2
  8
0
  6
CONTINUOUS
 62
     3
 10
37110.3
 20
5860.23
 30
0.0
 11
37241.4
 21
5512.47
 31
0.0
  0
LINE
  5
3A3
  8
0
  6
CONTINUOUS
 62
     3
 10
37157.3
 20
5856.63
 30
0.0
 11
37264.2
 21
5573.0
 31
0.0
  0
LINE
  5
3A4
  8
0
  6
CONTINUOUS
 62
     3
 10
37434.4
 20
5189.56
 30
0.0
 11
37565.6
 21
5512.45
 31
0.0
  0
LINE
  5
3A5
  8
0
  6
CONTINUOUS
 62
     3
 10
37481.9
 20
5193.22
 30
0.0
 11
37588.6
 21
5455.73
 31
0.0
  0
LINE
  5
3A6
  8
0
  6
CONTINUOUS
 62
     3
 10
37688.8
 20
5209.11
 30
0.0
 11
37434.4
 21
5835.35
 31
0.0
  0
LINE
  5
3A7
  8
0
  6
CONTINUOUS
 62
     3
 10
37733.5
 20
5212.54
 30
0.0
 11
37481.9
 21
5831.7
 31
0.0
  0
LINE
  5
3A8
  8
0
  6
CONTINUOUS
 62
     3
 10
38012.4
 20
5790.97
 30
0.0
 11
37758.4
 21
5214.45
 31
0.0
  0
LINE
  5
3A9
  8
0
  6
CONTINUOUS
 62
     3
 10
38057.5
 20
5787.5
 30
0.0
 11
37806.7
 21
5218.16
 31
0.0
  0
LINE
  5
3AA
  8
0
  6
CONTINUOUS
 62
     3
 10
37758.4
 20
5810.47
 30
0.0
 11
37889.7
 21
5512.46
 31
0.0
  0
LINE
  5
3AB
  8
0
  6
CONTINUOUS
 62
     3
 10
37806.7
 20
5806.76
 30
0.0
 11
37913.0
 21
5565.42
 31
0.0
  0
LINE
  5
3AC
  8
0
  6
CONTINUOUS
 62
     3
 10
38082.5
 20
5239.32
 30
0.0
 11
38213.9
 21
5512.45
 31
0.0
  0
LINE
  5
3AD
  8
0
  6
CONTINUOUS
 62
     3
 10
38131.7
 20
5243.1
 30
0.0
 11
38237.5
 21
5463.21
 31
0.0
  0
LINE
  5
3AE
  8
0
  6
CONTINUOUS
 62
     3
 10
38335.9
 20
5258.79
 30
0.0
 11
38082.4
 21
5785.59
 31
0.0
  0
LINE
  5
3AF
  8
0
  6
CONTINUOUS
 62
     3
 10
38381.6
 20
5262.3
 30
0.0
 11
38131.7
 21
5781.81
 31
0.0
  0
LINE
  5
3B0
  8
0
  6
CONTINUOUS
 62
     3
 10
38659.2
 20
5741.3
 30
0.0
 11
38406.5
 21
5264.2
 31
0.0
  0
LINE
  5
3B1
  8
0
  6
CONTINUOUS
 62
     3
 10
38705.6
 20
5737.74
 30
0.0
 11
38456.9
 21
5268.07
 31
0.0
  0
LINE
  5
3B2
  8
0
  6
CONTINUOUS
 62
     3
 10
38406.5
 20
5760.71
 30
0.0
 11
38538.0
 21
5512.45
 31
0.0
  0
LINE
  5
3B3
  8
0
  6
CONTINUOUS
 62
     3
 10
38456.9
 20
5756.84
 30
0.0
 11
38562.1
 21
5558.07
 31
0.0
  0
LINE
  5
3B4
  8
0
  6
CONTINUOUS
 62
     3
 10
38730.6
 20
5289.08
 30
0.0
 11
38836.1
 21
5512.45
 31
0.0
  0
LINE
  5
3B5
  8
0
  6
CONTINUOUS
 62
     3
 10
38779.6
 20
5292.84
 30
0.0
 11
38859.7
 21
5462.48
 31
0.0
  0
LINE
  5
3B6
  8
0
  6
CONTINUOUS
 62
     3
 10
38934.2
 20
5304.73
 30
0.0
 11
38730.5
 21
5735.81
 31
0.0
  0
LINE
  5
3B7
  8
0
  6
CONTINUOUS
 62
     3
 10
38979.8
 20
5308.23
 30
0.0
 11
38779.5
 21
5732.05
 31
0.0
  0
LINE
  5
3B8
  8
0
  6
CONTINUOUS
 62
     3
 10
39004.7
 20
5714.78
 30
0.0
 11
39112.9
 21
5512.46
 31
0.0
  0
LINE
  5
3B9
  8
0
  6
CONTINUOUS
 62
     3
 10
39055.2
 20
5710.9
 30
0.0
 11
39137.1
 21
5557.75
 31
0.0
  0
LINE
  5
3BA
  8
0
  6
CONTINUOUS
 62
     3
 10
36138.2
 20
5090.05
 30
0.0
 11
36268.9
 21
5512.46
 31
0.0
  0
LINE
  5
3BB
  8
0
  6
CONTINUOUS
 62
     3
 10
35936.4
 20
5512.48
 30
0.0
 11
35796.599566
 21
5961.095749
 31
0.0
  0
LINE
  5
3BC
  8
0
  6
CONTINUOUS
 62
     3
 10
35958.7
 20
5584.26
 30
0.0
 11
35842.398905
 21
5957.579417
 31
0.0
  0
LINE
  5
3BD
  8
0
  6
CONTINUOUS
 62
     3
 10
36291.3
 20
5584.65
 30
0.0
 11
36393.6
 21
5915.25
 31
0.0
  0
LINE
  5
3BE
  8
0
  6
CONTINUOUS
 62
     3
 10
36313.6
 20
5512.46
 30
0.0
 11
36437.3
 21
5911.89
 31
0.0
  0
LINE
  5
3BF
  8
0
  6
CONTINUOUS
 62
     3
 10
36615.6
 20
5444.19
 30
0.0
 11
36717.5
 21
5134.55
 31
0.0
  0
LINE
  5
3C0
  8
0
  6
CONTINUOUS
 62
     3
 10
36638.1
 20
5512.47
 30
0.0
 11
36761.4
 21
5137.91
 31
0.0
  0
LINE
  5
3C1
  8
0
  6
CONTINUOUS
 62
     3
 10
36939.9
 20
5576.84
 30
0.0
 11
37041.3
 21
5865.52
 31
0.0
  0
LINE
  5
3C2
  8
0
  6
CONTINUOUS
 62
     3
 10
36962.5
 20
5512.46
 30
0.0
 11
37085.4
 21
5862.13
 31
0.0
  0
LINE
  5
3C3
  8
0
  6
CONTINUOUS
 62
     3
 10
37264.2
 20
5451.94
 30
0.0
 11
37365.1
 21
5184.26
 31
0.0
  0
LINE
  5
3C4
  8
0
  6
CONTINUOUS
 62
     3
 10
37287.0
 20
5512.47
 30
0.0
 11
37409.4
 21
5187.66
 31
0.0
  0
LINE
  5
3C5
  8
0
  6
CONTINUOUS
 62
     3
 10
37588.6
 20
5569.17
 30
0.0
 11
37688.8
 21
5815.81
 31
0.0
  0
LINE
  5
3C6
  8
0
  6
CONTINUOUS
 62
     3
 10
37611.6
 20
5512.45
 30
0.0
 11
37733.5
 21
5812.38
 31
0.0
  0
LINE
  5
3C7
  8
0
  6
CONTINUOUS
 62
     3
 10
37913.0
 20
5459.51
 30
0.0
 11
38012.4
 21
5233.96
 31
0.0
  0
LINE
  5
3C8
  8
0
  6
CONTINUOUS
 62
     3
 10
37936.4
 20
5512.46
 30
0.0
 11
38057.5
 21
5237.42
 31
0.0
  0
LINE
  5
3C9
  8
0
  6
CONTINUOUS
 62
     3
 10
38261.2
 20
5512.45
 30
0.0
 11
38381.6
 21
5762.62
 31
0.0
  0
LINE
  5
3CA
  8
0
  6
CONTINUOUS
 62
     3
 10
38237.5
 20
5561.7
 30
0.0
 11
38335.9
 21
5766.13
 31
0.0
  0
LINE
  5
3CB
  8
0
  6
CONTINUOUS
 62
     3
 10
38562.1
 20
5466.84
 30
0.0
 11
38659.2
 21
5283.6
 31
0.0
  0
LINE
  5
3CC
  8
0
  6
CONTINUOUS
 62
     3
 10
38586.3
 20
5512.45
 30
0.0
 11
38705.6
 21
5287.17
 31
0.0
  0
LINE
  5
3CD
  8
0
  6
CONTINUOUS
 62
     3
 10
38859.7
 20
5562.43
 30
0.0
 11
38934.3
 21
5720.19
 31
0.0
  0
LINE
  5
3CE
  8
0
  6
CONTINUOUS
 62
     3
 10
38883.3
 20
5512.45
 30
0.0
 11
38979.8
 21
5716.69
 31
0.0
  0
LINE
  5
3CF
  8
0
  6
CONTINUOUS
 62
     3
 10
39208.7
 20
5601.08
 30
0.0
 11
39055.2
 21
5314.01
 31
0.0
  0
LINE
  5
3D0
  8
0
  6
CONTINUOUS
 62
     3
 10
39173.9
 20
5626.68
 30
0.0
 11
39004.7
 21
5310.14
 31
0.0
  0
LINE
  5
3D1
  8
0
  6
CONTINUOUS
 62
     3
 10
39137.1
 20
5467.17
 30
0.0
 11
39173.9
 21
5398.24
 31
0.0
  0
LINE
  5
3D2
  8
0
  6
CONTINUOUS
 62
     3
 10
39161.3
 20
5512.46
 30
0.0
 11
39208.7
 21
5423.84
 31
0.0
  0
LINE
  5
3D3
  8
0
  6
CONTINUOUS
 62
     3
 10
36069.6
 20
5940.13
 30
0.0
 11
35796.602439
 21
5063.84203
 31
0.0
  0
LINE
  5
3D4
  8
0
  6
CONTINUOUS
 62
     3
 10
36113.3
 20
5936.77
 30
0.0
 11
35842.40421
 21
5067.358481
 31
0.0
  0
LINE
  5
3D5
  8
0
  6
CONTINUOUS
 62
     3
 10
35771.7
 20
5963.00746
 30
0.0
 11
35771.7
 21
5061.930134
 31
0.0
  0
LINE
  5
3D6
  8
0
  6
CONTINUOUS
 62
     3
 10
35729.0
 20
5966.285834
 30
0.0
 11
35729.0
 21
5058.651823
 31
0.0
  0
LINE
  5
3D7
  8
0
  6
CONTINUOUS
 62
     3
 10
27907.6
 20
5967.46
 30
0.0
 11
27587.9
 21
5057.47
 31
0.0
  0
LINE
  5
3D8
  8
0
  6
CONTINUOUS
 62
     3
 10
27952.9
 20
5967.46
 30
0.0
 11
27633.1
 21
5057.48
 31
0.0
  0
LINE
  5
3D9
  8
0
  6
CONTINUOUS
 62
     3
 10
27562.8
 20
5057.48
 30
0.0
 11
27243.1
 21
5967.47
 31
0.0
  0
LINE
  5
3DA
  8
0
  6
CONTINUOUS
 62
     3
 10
27517.6
 20
5057.48
 30
0.0
 11
27197.8
 21
5967.47
 31
0.0
  0
LINE
  5
3DB
  8
0
  6
CONTINUOUS
 62
     3
 10
27633.1
 20
5967.47
 30
0.0
 11
27770.3
 21
5576.88
 31
0.0
  0
LINE
  5
3DC
  8
0
  6
CONTINUOUS
 62
     3
 10
27587.8
 20
5967.47
 30
0.0
 11
27747.7
 21
5512.47
 31
0.0
  0
LINE
  5
3DD
  8
0
  6
CONTINUOUS
 62
     3
 10
27243.1
 20
5057.47
 30
0.0
 11
27380.4
 21
5448.06
 31
0.0
  0
LINE
  5
3DE
  8
0
  6
CONTINUOUS
 62
     3
 10
27197.9
 20
5057.47
 30
0.0
 11
27357.7
 21
5512.47
 31
0.0
  0
LINE
  5
3DF
  8
0
  6
CONTINUOUS
 62
     3
 10
27793.0
 20
5512.47
 30
0.0
 11
27952.8
 21
5057.48
 31
0.0
  0
LINE
  5
3E0
  8
0
  6
CONTINUOUS
 62
     3
 10
27770.3
 20
5448.07
 30
0.0
 11
27907.6
 21
5057.47
 31
0.0
  0
LINE
  5
3E1
  8
0
  6
CONTINUOUS
 62
     3
 10
27403.0
 20
5512.46
 30
0.0
 11
27562.9
 21
5967.46
 31
0.0
  0
LINE
  5
3E2
  8
0
  6
CONTINUOUS
 62
     3
 10
27380.4
 20
5576.87
 30
0.0
 11
27517.6
 21
5967.46
 31
0.0
  0
LINE
  5
3E3
  8
0
  6
CONTINUOUS
 62
     3
 10
34972.8
 20
5967.47
 30
0.0
 11
34653.1
 21
5057.48
 31
0.0
  0
LINE
  5
3E4
  8
0
  6
CONTINUOUS
 62
     3
 10
34927.6
 20
5967.47
 30
0.0
 11
34607.8
 21
5057.48
 31
0.0
  0
LINE
  5
3E5
  8
0
  6
CONTINUOUS
 62
     3
 10
34582.8
 20
5057.48
 30
0.0
 11
34263.1
 21
5967.46
 31
0.0
  0
LINE
  5
3E6
  8
0
  6
CONTINUOUS
 62
     3
 10
34537.6
 20
5057.48
 30
0.0
 11
34217.8
 21
5967.47
 31
0.0
  0
LINE
  5
3E7
  8
0
  6
CONTINUOUS
 62
     3
 10
34653.1
 20
5967.46
 30
0.0
 11
34790.3
 21
5576.88
 31
0.0
  0
LINE
  5
3E8
  8
0
  6
CONTINUOUS
 62
     3
 10
34607.8
 20
5967.46
 30
0.0
 11
34767.7
 21
5512.47
 31
0.0
  0
LINE
  5
3E9
  8
0
  6
CONTINUOUS
 62
     3
 10
34263.1
 20
5057.48
 30
0.0
 11
34400.3
 21
5448.07
 31
0.0
  0
LINE
  5
3EA
  8
0
  6
CONTINUOUS
 62
     3
 10
34217.8
 20
5057.48
 30
0.0
 11
34377.7
 21
5512.47
 31
0.0
  0
LINE
  5
3EB
  8
0
  6
CONTINUOUS
 62
     3
 10
34813.0
 20
5512.47
 30
0.0
 11
34972.8
 21
5057.48
 31
0.0
  0
LINE
  5
3EC
  8
0
  6
CONTINUOUS
 62
     3
 10
34790.3
 20
5448.07
 30
0.0
 11
34927.6
 21
5057.48
 31
0.0
  0
LINE
  5
3ED
  8
0
  6
CONTINUOUS
 62
     3
 10
34423.0
 20
5512.47
 30
0.0
 11
34582.8
 21
5967.47
 31
0.0
  0
LINE
  5
3EE
  8
0
  6
CONTINUOUS
 62
     3
 10
34400.3
 20
5576.88
 30
0.0
 11
34537.6
 21
5967.47
 31
0.0
  0
LINE
  5
3EF
  8
0
  6
CONTINUOUS
 62
     3
 10
34192.8
 20
5967.47
 30
0.0
 11
33873.1
 21
5057.48
 31
0.0
  0
LINE
  5
3F0
  8
0
  6
CONTINUOUS
 62
     3
 10
34147.6
 20
5967.47
 30
0.0
 11
33827.8
 21
5057.48
 31
0.0
  0
LINE
  5
3F1
  8
0
  6
CONTINUOUS
 62
     3
 10
33802.8
 20
5057.48
 30
0.0
 11
33483.1
 21
5967.47
 31
0.0
  0
LINE
  5
3F2
  8
0
  6
CONTINUOUS
 62
     3
 10
33757.6
 20
5057.48
 30
0.0
 11
33437.8
 21
5967.47
 31
0.0
  0
LINE
  5
3F3
  8
0
  6
CONTINUOUS
 62
     3
 10
33873.1
 20
5967.46
 30
0.0
 11
34010.3
 21
5576.87
 31
0.0
  0
LINE
  5
3F4
  8
0
  6
CONTINUOUS
 62
     3
 10
33827.8
 20
5967.47
 30
0.0
 11
33987.7
 21
5512.47
 31
0.0
  0
LINE
  5
3F5
  8
0
  6
CONTINUOUS
 62
     3
 10
33483.1
 20
5057.48
 30
0.0
 11
33620.3
 21
5448.07
 31
0.0
  0
LINE
  5
3F6
  8
0
  6
CONTINUOUS
 62
     3
 10
33437.8
 20
5057.48
 30
0.0
 11
33597.7
 21
5512.47
 31
0.0
  0
LINE
  5
3F7
  8
0
  6
CONTINUOUS
 62
     3
 10
34033.0
 20
5512.47
 30
0.0
 11
34192.8
 21
5057.48
 31
0.0
  0
LINE
  5
3F8
  8
0
  6
CONTINUOUS
 62
     3
 10
34010.3
 20
5448.07
 30
0.0
 11
34147.6
 21
5057.48
 31
0.0
  0
LINE
  5
3F9
  8
0
  6
CONTINUOUS
 62
     3
 10
33643.0
 20
5512.47
 30
0.0
 11
33802.8
 21
5967.47
 31
0.0
  0
LINE
  5
3FA
  8
0
  6
CONTINUOUS
 62
     3
 10
33620.3
 20
5576.88
 30
0.0
 11
33757.6
 21
5967.47
 31
0.0
  0
LINE
  5
3FB
  8
0
  6
CONTINUOUS
 62
     3
 10
33412.8
 20
5967.47
 30
0.0
 11
33093.1
 21
5057.48
 31
0.0
  0
LINE
  5
3FC
  8
0
  6
CONTINUOUS
 62
     3
 10
33367.6
 20
5967.47
 30
0.0
 11
33047.8
 21
5057.48
 31
0.0
  0
LINE
  5
3FD
  8
0
  6
CONTINUOUS
 62
     3
 10
33022.8
 20
5057.48
 30
0.0
 11
32703.1
 21
5967.47
 31
0.0
  0
LINE
  5
3FE
  8
0
  6
CONTINUOUS
 62
     3
 10
32977.6
 20
5057.47
 30
0.0
 11
32657.8
 21
5967.47
 31
0.0
  0
LINE
  5
3FF
  8
0
  6
CONTINUOUS
 62
     3
 10
33093.1
 20
5967.46
 30
0.0
 11
33230.3
 21
5576.87
 31
0.0
  0
LINE
  5
400
  8
0
  6
CONTINUOUS
 62
     3
 10
33047.8
 20
5967.47
 30
0.0
 11
33207.7
 21
5512.47
 31
0.0
  0
LINE
  5
401
  8
0
  6
CONTINUOUS
 62
     3
 10
32703.1
 20
5057.48
 30
0.0
 11
32840.3
 21
5448.07
 31
0.0
  0
LINE
  5
402
  8
0
  6
CONTINUOUS
 62
     3
 10
32657.8
 20
5057.48
 30
0.0
 11
32817.7
 21
5512.47
 31
0.0
  0
LINE
  5
403
  8
0
  6
CONTINUOUS
 62
     3
 10
33253.0
 20
5512.47
 30
0.0
 11
33412.8
 21
5057.48
 31
0.0
  0
LINE
  5
404
  8
0
  6
CONTINUOUS
 62
     3
 10
33230.3
 20
5448.07
 30
0.0
 11
33367.6
 21
5057.47
 31
0.0
  0
LINE
  5
405
  8
0
  6
CONTINUOUS
 62
     3
 10
32863.0
 20
5512.47
 30
0.0
 11
33022.8
 21
5967.47
 31
0.0
  0
LINE
  5
406
  8
0
  6
CONTINUOUS
 62
     3
 10
32840.3
 20
5576.88
 30
0.0
 11
32977.6
 21
5967.47
 31
0.0
  0
LINE
  5
407
  8
0
  6
CONTINUOUS
 62
     3
 10
32632.8
 20
5967.47
 30
0.0
 11
32313.1
 21
5057.48
 31
0.0
  0
LINE
  5
408
  8
0
  6
CONTINUOUS
 62
     3
 10
32587.6
 20
5967.47
 30
0.0
 11
32267.8
 21
5057.48
 31
0.0
  0
LINE
  5
409
  8
0
  6
CONTINUOUS
 62
     3
 10
32242.8
 20
5057.48
 30
0.0
 11
31923.1
 21
5967.47
 31
0.0
  0
LINE
  5
40A
  8
0
  6
CONTINUOUS
 62
     3
 10
32197.6
 20
5057.48
 30
0.0
 11
31877.8
 21
5967.47
 31
0.0
  0
LINE
  5
40B
  8
0
  6
CONTINUOUS
 62
     3
 10
32313.1
 20
5967.46
 30
0.0
 11
32450.3
 21
5576.87
 31
0.0
  0
LINE
  5
40C
  8
0
  6
CONTINUOUS
 62
     3
 10
32267.8
 20
5967.46
 30
0.0
 11
32427.7
 21
5512.47
 31
0.0
  0
LINE
  5
40D
  8
0
  6
CONTINUOUS
 62
     3
 10
31923.1
 20
5057.48
 30
0.0
 11
32060.3
 21
5448.07
 31
0.0
  0
LINE
  5
40E
  8
0
  6
CONTINUOUS
 62
     3
 10
31877.8
 20
5057.48
 30
0.0
 11
32037.7
 21
5512.47
 31
0.0
  0
LINE
  5
40F
  8
0
  6
CONTINUOUS
 62
     3
 10
32473.0
 20
5512.47
 30
0.0
 11
32632.8
 21
5057.47
 31
0.0
  0
LINE
  5
410
  8
0
  6
CONTINUOUS
 62
     3
 10
32450.3
 20
5448.07
 30
0.0
 11
32587.6
 21
5057.47
 31
0.0
  0
LINE
  5
411
  8
0
  6
CONTINUOUS
 62
     3
 10
32083.0
 20
5512.47
 30
0.0
 11
32242.8
 21
5967.47
 31
0.0
  0
LINE
  5
412
  8
0
  6
CONTINUOUS
 62
     3
 10
32060.3
 20
5576.87
 30
0.0
 11
32197.6
 21
5967.47
 31
0.0
  0
LINE
  5
413
  8
0
  6
CONTINUOUS
 62
     3
 10
31852.8
 20
5967.47
 30
0.0
 11
31533.1
 21
5057.48
 31
0.0
  0
LINE
  5
414
  8
0
  6
CONTINUOUS
 62
     3
 10
31807.6
 20
5967.47
 30
0.0
 11
31487.8
 21
5057.48
 31
0.0
  0
LINE
  5
415
  8
0
  6
CONTINUOUS
 62
     3
 10
31462.8
 20
5057.47
 30
0.0
 11
31143.1
 21
5967.46
 31
0.0
  0
LINE
  5
416
  8
0
  6
CONTINUOUS
 62
     3
 10
31417.6
 20
5057.48
 30
0.0
 11
31097.8
 21
5967.47
 31
0.0
  0
LINE
  5
417
  8
0
  6
CONTINUOUS
 62
     3
 10
31533.1
 20
5967.46
 30
0.0
 11
31670.3
 21
5576.87
 31
0.0
  0
LINE
  5
418
  8
0
  6
CONTINUOUS
 62
     3
 10
31487.8
 20
5967.46
 30
0.0
 11
31647.7
 21
5512.47
 31
0.0
  0
LINE
  5
419
  8
0
  6
CONTINUOUS
 62
     3
 10
31143.1
 20
5057.48
 30
0.0
 11
31280.3
 21
5448.07
 31
0.0
  0
LINE
  5
41A
  8
0
  6
CONTINUOUS
 62
     3
 10
31097.8
 20
5057.48
 30
0.0
 11
31257.7
 21
5512.47
 31
0.0
  0
LINE
  5
41B
  8
0
  6
CONTINUOUS
 62
     3
 10
31693.0
 20
5512.47
 30
0.0
 11
31852.8
 21
5057.48
 31
0.0
  0
LINE
  5
41C
  8
0
  6
CONTINUOUS
 62
     3
 10
31670.3
 20
5448.07
 30
0.0
 11
31807.6
 21
5057.47
 31
0.0
  0
LINE
  5
41D
  8
0
  6
CONTINUOUS
 62
     3
 10
31303.0
 20
5512.47
 30
0.0
 11
31462.8
 21
5967.47
 31
0.0
  0
LINE
  5
41E
  8
0
  6
CONTINUOUS
 62
     3
 10
31280.3
 20
5576.87
 30
0.0
 11
31417.6
 21
5967.47
 31
0.0
  0
LINE
  5
41F
  8
0
  6
CONTINUOUS
 62
     3
 10
31072.8
 20
5967.47
 30
0.0
 11
30753.1
 21
5057.48
 31
0.0
  0
LINE
  5
420
  8
0
  6
CONTINUOUS
 62
     3
 10
31027.6
 20
5967.47
 30
0.0
 11
30707.8
 21
5057.48
 31
0.0
  0
LINE
  5
421
  8
0
  6
CONTINUOUS
 62
     3
 10
30682.8
 20
5057.47
 30
0.0
 11
30363.1
 21
5967.46
 31
0.0
  0
LINE
  5
422
  8
0
  6
CONTINUOUS
 62
     3
 10
30637.6
 20
5057.47
 30
0.0
 11
30317.8
 21
5967.47
 31
0.0
  0
LINE
  5
423
  8
0
  6
CONTINUOUS
 62
     3
 10
30753.1
 20
5967.46
 30
0.0
 11
30890.3
 21
5576.87
 31
0.0
  0
LINE
  5
424
  8
0
  6
CONTINUOUS
 62
     3
 10
30707.8
 20
5967.47
 30
0.0
 11
30867.7
 21
5512.47
 31
0.0
  0
LINE
  5
425
  8
0
  6
CONTINUOUS
 62
     3
 10
30363.1
 20
5057.48
 30
0.0
 11
30500.3
 21
5448.06
 31
0.0
  0
LINE
  5
426
  8
0
  6
CONTINUOUS
 62
     3
 10
30317.8
 20
5057.48
 30
0.0
 11
30477.7
 21
5512.47
 31
0.0
  0
LINE
  5
427
  8
0
  6
CONTINUOUS
 62
     3
 10
30913.0
 20
5512.47
 30
0.0
 11
31072.8
 21
5057.48
 31
0.0
  0
LINE
  5
428
  8
0
  6
CONTINUOUS
 62
     3
 10
30890.3
 20
5448.07
 30
0.0
 11
31027.6
 21
5057.47
 31
0.0
  0
LINE
  5
429
  8
0
  6
CONTINUOUS
 62
     3
 10
30523.0
 20
5512.47
 30
0.0
 11
30682.8
 21
5967.47
 31
0.0
  0
LINE
  5
42A
  8
0
  6
CONTINUOUS
 62
     3
 10
30500.3
 20
5576.87
 30
0.0
 11
30637.6
 21
5967.47
 31
0.0
  0
LINE
  5
42B
  8
0
  6
CONTINUOUS
 62
     3
 10
30292.8
 20
5967.47
 30
0.0
 11
29973.1
 21
5057.48
 31
0.0
  0
LINE
  5
42C
  8
0
  6
CONTINUOUS
 62
     3
 10
30247.6
 20
5967.47
 30
0.0
 11
29927.8
 21
5057.48
 31
0.0
  0
LINE
  5
42D
  8
0
  6
CONTINUOUS
 62
     3
 10
29902.8
 20
5057.47
 30
0.0
 11
29583.1
 21
5967.47
 31
0.0
  0
LINE
  5
42E
  8
0
  6
CONTINUOUS
 62
     3
 10
29857.6
 20
5057.47
 30
0.0
 11
29537.8
 21
5967.47
 31
0.0
  0
LINE
  5
42F
  8
0
  6
CONTINUOUS
 62
     3
 10
29973.1
 20
5967.47
 30
0.0
 11
30110.3
 21
5576.88
 31
0.0
  0
LINE
  5
430
  8
0
  6
CONTINUOUS
 62
     3
 10
29927.8
 20
5967.47
 30
0.0
 11
30087.7
 21
5512.47
 31
0.0
  0
LINE
  5
431
  8
0
  6
CONTINUOUS
 62
     3
 10
29583.1
 20
5057.48
 30
0.0
 11
29720.3
 21
5448.06
 31
0.0
  0
LINE
  5
432
  8
0
  6
CONTINUOUS
 62
     3
 10
29537.8
 20
5057.47
 30
0.0
 11
29697.7
 21
5512.47
 31
0.0
  0
LINE
  5
433
  8
0
  6
CONTINUOUS
 62
     3
 10
30133.0
 20
5512.47
 30
0.0
 11
30292.8
 21
5057.48
 31
0.0
  0
LINE
  5
434
  8
0
  6
CONTINUOUS
 62
     3
 10
30110.3
 20
5448.07
 30
0.0
 11
30247.6
 21
5057.47
 31
0.0
  0
LINE
  5
435
  8
0
  6
CONTINUOUS
 62
     3
 10
29743.0
 20
5512.47
 30
0.0
 11
29902.8
 21
5967.46
 31
0.0
  0
LINE
  5
436
  8
0
  6
CONTINUOUS
 62
     3
 10
29720.3
 20
5576.87
 30
0.0
 11
29857.6
 21
5967.46
 31
0.0
  0
LINE
  5
437
  8
0
  6
CONTINUOUS
 62
     3
 10
29512.8
 20
5967.47
 30
0.0
 11
29193.1
 21
5057.48
 31
0.0
  0
LINE
  5
438
  8
0
  6
CONTINUOUS
 62
     3
 10
29467.6
 20
5967.46
 30
0.0
 11
29147.8
 21
5057.48
 31
0.0
  0
LINE
  5
439
  8
0
  6
CONTINUOUS
 62
     3
 10
29122.8
 20
5057.48
 30
0.0
 11
28803.1
 21
5967.47
 31
0.0
  0
LINE
  5
43A
  8
0
  6
CONTINUOUS
 62
     3
 10
29077.6
 20
5057.47
 30
0.0
 11
28757.8
 21
5967.47
 31
0.0
  0
LINE
  5
43B
  8
0
  6
CONTINUOUS
 62
     3
 10
29193.1
 20
5967.46
 30
0.0
 11
29330.3
 21
5576.87
 31
0.0
  0
LINE
  5
43C
  8
0
  6
CONTINUOUS
 62
     3
 10
29147.8
 20
5967.46
 30
0.0
 11
29307.7
 21
5512.47
 31
0.0
  0
LINE
  5
43D
  8
0
  6
CONTINUOUS
 62
     3
 10
28803.1
 20
5057.47
 30
0.0
 11
28940.3
 21
5448.06
 31
0.0
  0
LINE
  5
43E
  8
0
  6
CONTINUOUS
 62
     3
 10
28757.8
 20
5057.47
 30
0.0
 11
28917.7
 21
5512.47
 31
0.0
  0
LINE
  5
43F
  8
0
  6
CONTINUOUS
 62
     3
 10
29353.0
 20
5512.47
 30
0.0
 11
29512.8
 21
5057.48
 31
0.0
  0
LINE
  5
440
  8
0
  6
CONTINUOUS
 62
     3
 10
29330.3
 20
5448.07
 30
0.0
 11
29467.6
 21
5057.47
 31
0.0
  0
LINE
  5
441
  8
0
  6
CONTINUOUS
 62
     3
 10
28963.0
 20
5512.47
 30
0.0
 11
29122.8
 21
5967.46
 31
0.0
  0
LINE
  5
442
  8
0
  6
CONTINUOUS
 62
     3
 10
28940.3
 20
5576.87
 30
0.0
 11
29077.6
 21
5967.46
 31
0.0
  0
LINE
  5
443
  8
0
  6
CONTINUOUS
 62
     3
 10
28732.8
 20
5967.46
 30
0.0
 11
28413.1
 21
5057.48
 31
0.0
  0
LINE
  5
444
  8
0
  6
CONTINUOUS
 62
     3
 10
28687.6
 20
5967.46
 30
0.0
 11
28367.8
 21
5057.47
 31
0.0
  0
LINE
  5
445
  8
0
  6
CONTINUOUS
 62
     3
 10
28342.8
 20
5057.47
 30
0.0
 11
28023.1
 21
5967.46
 31
0.0
  0
LINE
  5
446
  8
0
  6
CONTINUOUS
 62
     3
 10
28297.6
 20
5057.48
 30
0.0
 11
27977.8
 21
5967.47
 31
0.0
  0
LINE
  5
447
  8
0
  6
CONTINUOUS
 62
     3
 10
28413.1
 20
5967.47
 30
0.0
 11
28550.3
 21
5576.87
 31
0.0
  0
LINE
  5
448
  8
0
  6
CONTINUOUS
 62
     3
 10
28367.8
 20
5967.47
 30
0.0
 11
28527.7
 21
5512.47
 31
0.0
  0
LINE
  5
449
  8
0
  6
CONTINUOUS
 62
     3
 10
28023.1
 20
5057.47
 30
0.0
 11
28160.4
 21
5448.06
 31
0.0
  0
LINE
  5
44A
  8
0
  6
CONTINUOUS
 62
     3
 10
27977.9
 20
5057.47
 30
0.0
 11
28137.7
 21
5512.47
 31
0.0
  0
LINE
  5
44B
  8
0
  6
CONTINUOUS
 62
     3
 10
28573.0
 20
5512.47
 30
0.0
 11
28732.8
 21
5057.48
 31
0.0
  0
LINE
  5
44C
  8
0
  6
CONTINUOUS
 62
     3
 10
28550.3
 20
5448.07
 30
0.0
 11
28687.6
 21
5057.47
 31
0.0
  0
LINE
  5
44D
  8
0
  6
CONTINUOUS
 62
     3
 10
28183.0
 20
5512.47
 30
0.0
 11
28342.9
 21
5967.46
 31
0.0
  0
LINE
  5
44E
  8
0
  6
CONTINUOUS
 62
     3
 10
28160.4
 20
5576.87
 30
0.0
 11
28297.6
 21
5967.46
 31
0.0
  0
LINE
  5
44F
  8
0
  6
CONTINUOUS
 62
     3
 10
35396.7
 20
5057.48
 30
0.0
 11
35396.7
 21
5967.47
 31
0.0
  0
LINE
  5
450
  8
0
  6
CONTINUOUS
 62
     3
 10
35443.9
 20
5057.48
 30
0.0
 11
35443.9
 21
5967.47
 31
0.0
  0
LINE
  5
451
  8
0
  6
CONTINUOUS
 62
     3
 10
26773.9
 20
5967.47
 30
0.0
 11
26773.9
 21
5057.48
 31
0.0
  0
LINE
  5
452
  8
0
  6
CONTINUOUS
 62
     3
 10
26726.7
 20
5967.47
 30
0.0
 11
26726.7
 21
5057.48
 31
0.0
  0
LINE
  5
453
  8
0
  6
CONTINUOUS
 62
     3
 10
35043.0
 20
5967.46
 30
0.0
 11
35373.516062
 21
5057.48
 31
0.0
  0
LINE
  5
454
  8
0
  6
CONTINUOUS
 62
     3
 10
34997.6
 20
5967.46
 30
0.0
 11
35328.116062
 21
5057.48
 31
0.0
  0
LINE
  5
455
  8
0
  6
CONTINUOUS
 62
     3
 10
35373.515556
 20
5967.47
 30
0.0
 11
35208.3
 21
5512.47
 31
0.0
  0
LINE
  5
456
  8
0
  6
CONTINUOUS
 62
     3
 10
35328.115671
 20
5967.47
 30
0.0
 11
35185.6
 21
5575.01
 31
0.0
  0
LINE
  5
457
  8
0
  6
CONTINUOUS
 62
     3
 10
35162.9
 20
5512.47
 30
0.0
 11
34997.6
 21
5057.48
 31
0.0
  0
LINE
  5
458
  8
0
  6
CONTINUOUS
 62
     3
 10
35185.6
 20
5449.93
 30
0.0
 11
35043.0
 21
5057.48
 31
0.0
  0
LINE
  5
459
  8
0
  6
CONTINUOUS
 62
     3
 10
26797.18759
 20
5057.48
 30
0.0
 11
27127.7
 21
5967.46
 31
0.0
  0
LINE
  5
45A
  8
0
  6
CONTINUOUS
 62
     3
 10
26842.58759
 20
5057.48
 30
0.0
 11
27173.1
 21
5967.46
 31
0.0
  0
LINE
  5
45B
  8
0
  6
CONTINUOUS
 62
     3
 10
26962.4
 20
5512.48
 30
0.0
 11
26797.184404
 21
5967.47
 31
0.0
  0
LINE
  5
45C
  8
0
  6
CONTINUOUS
 62
     3
 10
26985.1
 20
5575.01
 30
0.0
 11
26842.584329
 21
5967.47
 31
0.0
  0
LINE
  5
45D
  8
0
  6
CONTINUOUS
 62
     3
 10
27173.1
 20
5057.48
 30
0.0
 11
27007.8
 21
5512.47
 31
0.0
  0
LINE
  5
45E
  8
0
  6
CONTINUOUS
 62
     3
 10
27127.6
 20
5057.48
 30
0.0
 11
26985.1
 21
5449.93
 31
0.0
  0
LINE
  5
45F
  8
0
  6
CONTINUOUS
 62
     3
 10
9907.59
 20
5967.46
 30
0.0
 11
9587.85
 21
5057.47
 31
0.0
  0
LINE
  5
460
  8
0
  6
CONTINUOUS
 62
     3
 10
9952.85
 20
5967.46
 30
0.0
 11
9633.11
 21
5057.48
 31
0.0
  0
LINE
  5
461
  8
0
  6
CONTINUOUS
 62
     3
 10
9562.85
 20
5057.48
 30
0.0
 11
9243.11
 21
5967.47
 31
0.0
  0
LINE
  5
462
  8
0
  6
CONTINUOUS
 62
     3
 10
9517.59
 20
5057.48
 30
0.0
 11
9197.85
 21
5967.47
 31
0.0
  0
LINE
  5
463
  8
0
  6
CONTINUOUS
 62
     3
 10
9633.1
 20
5967.47
 30
0.0
 11
9770.34
 21
5576.88
 31
0.0
  0
LINE
  5
464
  8
0
  6
CONTINUOUS
 62
     3
 10
9587.84
 20
5967.47
 30
0.0
 11
9747.71
 21
5512.47
 31
0.0
  0
LINE
  5
465
  8
0
  6
CONTINUOUS
 62
     3
 10
9243.12
 20
5057.47
 30
0.0
 11
9380.36
 21
5448.06
 31
0.0
  0
LINE
  5
466
  8
0
  6
CONTINUOUS
 62
     3
 10
9197.85
 20
5057.47
 30
0.0
 11
9357.72
 21
5512.47
 31
0.0
  0
LINE
  5
467
  8
0
  6
CONTINUOUS
 62
     3
 10
9792.97
 20
5512.47
 30
0.0
 11
9952.84
 21
5057.48
 31
0.0
  0
LINE
  5
468
  8
0
  6
CONTINUOUS
 62
     3
 10
9770.34
 20
5448.07
 30
0.0
 11
9907.58
 21
5057.47
 31
0.0
  0
LINE
  5
469
  8
0
  6
CONTINUOUS
 62
     3
 10
9402.99
 20
5512.46
 30
0.0
 11
9562.86
 21
5967.46
 31
0.0
  0
LINE
  5
46A
  8
0
  6
CONTINUOUS
 62
     3
 10
9380.35
 20
5576.87
 30
0.0
 11
9517.6
 21
5967.46
 31
0.0
  0
LINE
  5
46B
  8
0
  6
CONTINUOUS
 62
     3
 10
16972.8
 20
5967.47
 30
0.0
 11
16653.1
 21
5057.48
 31
0.0
  0
LINE
  5
46C
  8
0
  6
CONTINUOUS
 62
     3
 10
16927.6
 20
5967.47
 30
0.0
 11
16607.8
 21
5057.48
 31
0.0
  0
LINE
  5
46D
  8
0
  6
CONTINUOUS
 62
     3
 10
16582.8
 20
5057.48
 30
0.0
 11
16263.1
 21
5967.46
 31
0.0
  0
LINE
  5
46E
  8
0
  6
CONTINUOUS
 62
     3
 10
16537.6
 20
5057.48
 30
0.0
 11
16217.8
 21
5967.47
 31
0.0
  0
LINE
  5
46F
  8
0
  6
CONTINUOUS
 62
     3
 10
16653.1
 20
5967.46
 30
0.0
 11
16790.3
 21
5576.88
 31
0.0
  0
LINE
  5
470
  8
0
  6
CONTINUOUS
 62
     3
 10
16607.8
 20
5967.46
 30
0.0
 11
16767.7
 21
5512.47
 31
0.0
  0
LINE
  5
471
  8
0
  6
CONTINUOUS
 62
     3
 10
16263.1
 20
5057.48
 30
0.0
 11
16400.3
 21
5448.07
 31
0.0
  0
LINE
  5
472
  8
0
  6
CONTINUOUS
 62
     3
 10
16217.8
 20
5057.48
 30
0.0
 11
16377.7
 21
5512.47
 31
0.0
  0
LINE
  5
473
  8
0
  6
CONTINUOUS
 62
     3
 10
16813.0
 20
5512.47
 30
0.0
 11
16972.8
 21
5057.47
 31
0.0
  0
LINE
  5
474
  8
0
  6
CONTINUOUS
 62
     3
 10
16790.3
 20
5448.07
 30
0.0
 11
16927.6
 21
5057.48
 31
0.0
  0
LINE
  5
475
  8
0
  6
CONTINUOUS
 62
     3
 10
16423.0
 20
5512.47
 30
0.0
 11
16582.8
 21
5967.47
 31
0.0
  0
LINE
  5
476
  8
0
  6
CONTINUOUS
 62
     3
 10
16400.3
 20
5576.88
 30
0.0
 11
16537.6
 21
5967.47
 31
0.0
  0
LINE
  5
477
  8
0
  6
CONTINUOUS
 62
     3
 10
16192.8
 20
5967.47
 30
0.0
 11
15873.1
 21
5057.48
 31
0.0
  0
LINE
  5
478
  8
0
  6
CONTINUOUS
 62
     3
 10
16147.6
 20
5967.47
 30
0.0
 11
15827.8
 21
5057.48
 31
0.0
  0
LINE
  5
479
  8
0
  6
CONTINUOUS
 62
     3
 10
15802.8
 20
5057.48
 30
0.0
 11
15483.1
 21
5967.47
 31
0.0
  0
LINE
  5
47A
  8
0
  6
CONTINUOUS
 62
     3
 10
15757.6
 20
5057.48
 30
0.0
 11
15437.8
 21
5967.47
 31
0.0
  0
LINE
  5
47B
  8
0
  6
CONTINUOUS
 62
     3
 10
15873.1
 20
5967.46
 30
0.0
 11
16010.3
 21
5576.87
 31
0.0
  0
LINE
  5
47C
  8
0
  6
CONTINUOUS
 62
     3
 10
15827.8
 20
5967.46
 30
0.0
 11
15987.7
 21
5512.47
 31
0.0
  0
LINE
  5
47D
  8
0
  6
CONTINUOUS
 62
     3
 10
15483.1
 20
5057.48
 30
0.0
 11
15620.3
 21
5448.07
 31
0.0
  0
LINE
  5
47E
  8
0
  6
CONTINUOUS
 62
     3
 10
15437.8
 20
5057.48
 30
0.0
 11
15597.7
 21
5512.47
 31
0.0
  0
LINE
  5
47F
  8
0
  6
CONTINUOUS
 62
     3
 10
16033.0
 20
5512.47
 30
0.0
 11
16192.8
 21
5057.48
 31
0.0
  0
LINE
  5
480
  8
0
  6
CONTINUOUS
 62
     3
 10
16010.3
 20
5448.07
 30
0.0
 11
16147.6
 21
5057.48
 31
0.0
  0
LINE
  5
481
  8
0
  6
CONTINUOUS
 62
     3
 10
15643.0
 20
5512.47
 30
0.0
 11
15802.8
 21
5967.47
 31
0.0
  0
LINE
  5
482
  8
0
  6
CONTINUOUS
 62
     3
 10
15620.3
 20
5576.88
 30
0.0
 11
15757.6
 21
5967.47
 31
0.0
  0
LINE
  5
483
  8
0
  6
CONTINUOUS
 62
     3
 10
15412.8
 20
5967.47
 30
0.0
 11
15093.1
 21
5057.48
 31
0.0
  0
LINE
  5
484
  8
0
  6
CONTINUOUS
 62
     3
 10
15367.6
 20
5967.47
 30
0.0
 11
15047.8
 21
5057.48
 31
0.0
  0
LINE
  5
485
  8
0
  6
CONTINUOUS
 62
     3
 10
15022.8
 20
5057.47
 30
0.0
 11
14703.1
 21
5967.47
 31
0.0
  0
LINE
  5
486
  8
0
  6
CONTINUOUS
 62
     3
 10
14977.6
 20
5057.47
 30
0.0
 11
14657.8
 21
5967.47
 31
0.0
  0
LINE
  5
487
  8
0
  6
CONTINUOUS
 62
     3
 10
15093.1
 20
5967.46
 30
0.0
 11
15230.3
 21
5576.88
 31
0.0
  0
LINE
  5
488
  8
0
  6
CONTINUOUS
 62
     3
 10
15047.8
 20
5967.47
 30
0.0
 11
15207.7
 21
5512.47
 31
0.0
  0
LINE
  5
489
  8
0
  6
CONTINUOUS
 62
     3
 10
14703.1
 20
5057.48
 30
0.0
 11
14840.3
 21
5448.07
 31
0.0
  0
LINE
  5
48A
  8
0
  6
CONTINUOUS
 62
     3
 10
14657.8
 20
5057.48
 30
0.0
 11
14817.7
 21
5512.47
 31
0.0
  0
LINE
  5
48B
  8
0
  6
CONTINUOUS
 62
     3
 10
15253.0
 20
5512.47
 30
0.0
 11
15412.8
 21
5057.48
 31
0.0
  0
LINE
  5
48C
  8
0
  6
CONTINUOUS
 62
     3
 10
15230.3
 20
5448.07
 30
0.0
 11
15367.6
 21
5057.47
 31
0.0
  0
LINE
  5
48D
  8
0
  6
CONTINUOUS
 62
     3
 10
14863.0
 20
5512.47
 30
0.0
 11
15022.8
 21
5967.47
 31
0.0
  0
LINE
  5
48E
  8
0
  6
CONTINUOUS
 62
     3
 10
14840.3
 20
5576.88
 30
0.0
 11
14977.6
 21
5967.47
 31
0.0
  0
LINE
  5
48F
  8
0
  6
CONTINUOUS
 62
     3
 10
14632.8
 20
5967.47
 30
0.0
 11
14313.1
 21
5057.48
 31
0.0
  0
LINE
  5
490
  8
0
  6
CONTINUOUS
 62
     3
 10
14587.6
 20
5967.47
 30
0.0
 11
14267.8
 21
5057.48
 31
0.0
  0
LINE
  5
491
  8
0
  6
CONTINUOUS
 62
     3
 10
14242.8
 20
5057.48
 30
0.0
 11
13923.1
 21
5967.47
 31
0.0
  0
LINE
  5
492
  8
0
  6
CONTINUOUS
 62
     3
 10
14197.6
 20
5057.48
 30
0.0
 11
13877.8
 21
5967.47
 31
0.0
  0
LINE
  5
493
  8
0
  6
CONTINUOUS
 62
     3
 10
14313.1
 20
5967.46
 30
0.0
 11
14450.3
 21
5576.87
 31
0.0
  0
LINE
  5
494
  8
0
  6
CONTINUOUS
 62
     3
 10
14267.8
 20
5967.46
 30
0.0
 11
14427.7
 21
5512.47
 31
0.0
  0
LINE
  5
495
  8
0
  6
CONTINUOUS
 62
     3
 10
13923.1
 20
5057.48
 30
0.0
 11
14060.3
 21
5448.07
 31
0.0
  0
LINE
  5
496
  8
0
  6
CONTINUOUS
 62
     3
 10
13877.8
 20
5057.47
 30
0.0
 11
14037.7
 21
5512.47
 31
0.0
  0
LINE
  5
497
  8
0
  6
CONTINUOUS
 62
     3
 10
14473.0
 20
5512.47
 30
0.0
 11
14632.8
 21
5057.47
 31
0.0
  0
LINE
  5
498
  8
0
  6
CONTINUOUS
 62
     3
 10
14450.3
 20
5448.07
 30
0.0
 11
14587.6
 21
5057.47
 31
0.0
  0
LINE
  5
499
  8
0
  6
CONTINUOUS
 62
     3
 10
14083.0
 20
5512.47
 30
0.0
 11
14242.8
 21
5967.47
 31
0.0
  0
LINE
  5
49A
  8
0
  6
CONTINUOUS
 62
     3
 10
14060.3
 20
5576.87
 30
0.0
 11
14197.6
 21
5967.47
 31
0.0
  0
LINE
  5
49B
  8
0
  6
CONTINUOUS
 62
     3
 10
13852.8
 20
5967.47
 30
0.0
 11
13533.1
 21
5057.48
 31
0.0
  0
LINE
  5
49C
  8
0
  6
CONTINUOUS
 62
     3
 10
13807.6
 20
5967.47
 30
0.0
 11
13487.8
 21
5057.48
 31
0.0
  0
LINE
  5
49D
  8
0
  6
CONTINUOUS
 62
     3
 10
13462.8
 20
5057.47
 30
0.0
 11
13143.1
 21
5967.46
 31
0.0
  0
LINE
  5
49E
  8
0
  6
CONTINUOUS
 62
     3
 10
13417.6
 20
5057.48
 30
0.0
 11
13097.8
 21
5967.47
 31
0.0
  0
LINE
  5
49F
  8
0
  6
CONTINUOUS
 62
     3
 10
13533.1
 20
5967.46
 30
0.0
 11
13670.3
 21
5576.87
 31
0.0
  0
LINE
  5
4A0
  8
0
  6
CONTINUOUS
 62
     3
 10
13487.8
 20
5967.46
 30
0.0
 11
13647.7
 21
5512.47
 31
0.0
  0
LINE
  5
4A1
  8
0
  6
CONTINUOUS
 62
     3
 10
13143.1
 20
5057.48
 30
0.0
 11
13280.3
 21
5448.07
 31
0.0
  0
LINE
  5
4A2
  8
0
  6
CONTINUOUS
 62
     3
 10
13097.8
 20
5057.47
 30
0.0
 11
13257.7
 21
5512.47
 31
0.0
  0
LINE
  5
4A3
  8
0
  6
CONTINUOUS
 62
     3
 10
13693.0
 20
5512.47
 30
0.0
 11
13852.8
 21
5057.48
 31
0.0
  0
LINE
  5
4A4
  8
0
  6
CONTINUOUS
 62
     3
 10
13670.3
 20
5448.07
 30
0.0
 11
13807.6
 21
5057.47
 31
0.0
  0
LINE
  5
4A5
  8
0
  6
CONTINUOUS
 62
     3
 10
13303.0
 20
5512.47
 30
0.0
 11
13462.8
 21
5967.47
 31
0.0
  0
LINE
  5
4A6
  8
0
  6
CONTINUOUS
 62
     3
 10
13280.3
 20
5576.87
 30
0.0
 11
13417.6
 21
5967.47
 31
0.0
  0
LINE
  5
4A7
  8
0
  6
CONTINUOUS
 62
     3
 10
13072.8
 20
5967.47
 30
0.0
 11
12753.1
 21
5057.48
 31
0.0
  0
LINE
  5
4A8
  8
0
  6
CONTINUOUS
 62
     3
 10
13027.6
 20
5967.47
 30
0.0
 11
12707.8
 21
5057.48
 31
0.0
  0
LINE
  5
4A9
  8
0
  6
CONTINUOUS
 62
     3
 10
12682.8
 20
5057.47
 30
0.0
 11
12363.1
 21
5967.46
 31
0.0
  0
LINE
  5
4AA
  8
0
  6
CONTINUOUS
 62
     3
 10
12637.6
 20
5057.47
 30
0.0
 11
12317.8
 21
5967.47
 31
0.0
  0
LINE
  5
4AB
  8
0
  6
CONTINUOUS
 62
     3
 10
12753.1
 20
5967.46
 30
0.0
 11
12890.3
 21
5576.87
 31
0.0
  0
LINE
  5
4AC
  8
0
  6
CONTINUOUS
 62
     3
 10
12707.8
 20
5967.47
 30
0.0
 11
12867.7
 21
5512.47
 31
0.0
  0
LINE
  5
4AD
  8
0
  6
CONTINUOUS
 62
     3
 10
12363.1
 20
5057.47
 30
0.0
 11
12500.3
 21
5448.06
 31
0.0
  0
LINE
  5
4AE
  8
0
  6
CONTINUOUS
 62
     3
 10
12317.8
 20
5057.47
 30
0.0
 11
12477.7
 21
5512.47
 31
0.0
  0
LINE
  5
4AF
  8
0
  6
CONTINUOUS
 62
     3
 10
12913.0
 20
5512.47
 30
0.0
 11
13072.8
 21
5057.48
 31
0.0
  0
LINE
  5
4B0
  8
0
  6
CONTINUOUS
 62
     3
 10
12890.3
 20
5448.07
 30
0.0
 11
13027.6
 21
5057.47
 31
0.0
  0
LINE
  5
4B1
  8
0
  6
CONTINUOUS
 62
     3
 10
12523.0
 20
5512.47
 30
0.0
 11
12682.8
 21
5967.46
 31
0.0
  0
LINE
  5
4B2
  8
0
  6
CONTINUOUS
 62
     3
 10
12500.3
 20
5576.87
 30
0.0
 11
12637.6
 21
5967.47
 31
0.0
  0
LINE
  5
4B3
  8
0
  6
CONTINUOUS
 62
     3
 10
12292.8
 20
5967.46
 30
0.0
 11
11973.1
 21
5057.48
 31
0.0
  0
LINE
  5
4B4
  8
0
  6
CONTINUOUS
 62
     3
 10
12247.6
 20
5967.47
 30
0.0
 11
11927.8
 21
5057.48
 31
0.0
  0
LINE
  5
4B5
  8
0
  6
CONTINUOUS
 62
     3
 10
11902.8
 20
5057.47
 30
0.0
 11
11583.1
 21
5967.47
 31
0.0
  0
LINE
  5
4B6
  8
0
  6
CONTINUOUS
 62
     3
 10
11857.6
 20
5057.47
 30
0.0
 11
11537.8
 21
5967.47
 31
0.0
  0
LINE
  5
4B7
  8
0
  6
CONTINUOUS
 62
     3
 10
11973.1
 20
5967.47
 30
0.0
 11
12110.3
 21
5576.88
 31
0.0
  0
LINE
  5
4B8
  8
0
  6
CONTINUOUS
 62
     3
 10
11927.8
 20
5967.47
 30
0.0
 11
12087.7
 21
5512.47
 31
0.0
  0
LINE
  5
4B9
  8
0
  6
CONTINUOUS
 62
     3
 10
11583.1
 20
5057.48
 30
0.0
 11
11720.3
 21
5448.06
 31
0.0
  0
LINE
  5
4BA
  8
0
  6
CONTINUOUS
 62
     3
 10
11537.8
 20
5057.47
 30
0.0
 11
11697.7
 21
5512.47
 31
0.0
  0
LINE
  5
4BB
  8
0
  6
CONTINUOUS
 62
     3
 10
12133.0
 20
5512.47
 30
0.0
 11
12292.8
 21
5057.48
 31
0.0
  0
LINE
  5
4BC
  8
0
  6
CONTINUOUS
 62
     3
 10
12110.3
 20
5448.07
 30
0.0
 11
12247.6
 21
5057.47
 31
0.0
  0
LINE
  5
4BD
  8
0
  6
CONTINUOUS
 62
     3
 10
11743.0
 20
5512.47
 30
0.0
 11
11902.8
 21
5967.46
 31
0.0
  0
LINE
  5
4BE
  8
0
  6
CONTINUOUS
 62
     3
 10
11720.3
 20
5576.87
 30
0.0
 11
11857.6
 21
5967.46
 31
0.0
  0
LINE
  5
4BF
  8
0
  6
CONTINUOUS
 62
     3
 10
11512.8
 20
5967.46
 30
0.0
 11
11193.1
 21
5057.48
 31
0.0
  0
LINE
  5
4C0
  8
0
  6
CONTINUOUS
 62
     3
 10
11467.6
 20
5967.46
 30
0.0
 11
11147.8
 21
5057.47
 31
0.0
  0
LINE
  5
4C1
  8
0
  6
CONTINUOUS
 62
     3
 10
11122.8
 20
5057.48
 30
0.0
 11
10803.1
 21
5967.47
 31
0.0
  0
LINE
  5
4C2
  8
0
  6
CONTINUOUS
 62
     3
 10
11077.6
 20
5057.47
 30
0.0
 11
10757.8
 21
5967.47
 31
0.0
  0
LINE
  5
4C3
  8
0
  6
CONTINUOUS
 62
     3
 10
11193.1
 20
5967.46
 30
0.0
 11
11330.3
 21
5576.87
 31
0.0
  0
LINE
  5
4C4
  8
0
  6
CONTINUOUS
 62
     3
 10
11147.8
 20
5967.46
 30
0.0
 11
11307.7
 21
5512.47
 31
0.0
  0
LINE
  5
4C5
  8
0
  6
CONTINUOUS
 62
     3
 10
10803.1
 20
5057.47
 30
0.0
 11
10940.3
 21
5448.06
 31
0.0
  0
LINE
  5
4C6
  8
0
  6
CONTINUOUS
 62
     3
 10
10757.8
 20
5057.47
 30
0.0
 11
10917.7
 21
5512.47
 31
0.0
  0
LINE
  5
4C7
  8
0
  6
CONTINUOUS
 62
     3
 10
11353.0
 20
5512.47
 30
0.0
 11
11512.8
 21
5057.48
 31
0.0
  0
LINE
  5
4C8
  8
0
  6
CONTINUOUS
 62
     3
 10
11330.3
 20
5448.07
 30
0.0
 11
11467.6
 21
5057.47
 31
0.0
  0
LINE
  5
4C9
  8
0
  6
CONTINUOUS
 62
     3
 10
10963.0
 20
5512.47
 30
0.0
 11
11122.8
 21
5967.46
 31
0.0
  0
LINE
  5
4CA
  8
0
  6
CONTINUOUS
 62
     3
 10
10940.3
 20
5576.87
 30
0.0
 11
11077.6
 21
5967.46
 31
0.0
  0
LINE
  5
4CB
  8
0
  6
CONTINUOUS
 62
     3
 10
10732.8
 20
5967.46
 30
0.0
 11
10413.1
 21
5057.48
 31
0.0
  0
LINE
  5
4CC
  8
0
  6
CONTINUOUS
 62
     3
 10
10687.6
 20
5967.46
 30
0.0
 11
10367.8
 21
5057.47
 31
0.0
  0
LINE
  5
4CD
  8
0
  6
CONTINUOUS
 62
     3
 10
10342.8
 20
5057.47
 30
0.0
 11
10023.1
 21
5967.46
 31
0.0
  0
LINE
  5
4CE
  8
0
  6
CONTINUOUS
 62
     3
 10
10297.6
 20
5057.48
 30
0.0
 11
9977.84
 21
5967.47
 31
0.0
  0
LINE
  5
4CF
  8
0
  6
CONTINUOUS
 62
     3
 10
10413.1
 20
5967.47
 30
0.0
 11
10550.3
 21
5576.87
 31
0.0
  0
LINE
  5
4D0
  8
0
  6
CONTINUOUS
 62
     3
 10
10367.8
 20
5967.47
 30
0.0
 11
10527.7
 21
5512.47
 31
0.0
  0
LINE
  5
4D1
  8
0
  6
CONTINUOUS
 62
     3
 10
10023.1
 20
5057.47
 30
0.0
 11
10160.4
 21
5448.06
 31
0.0
  0
LINE
  5
4D2
  8
0
  6
CONTINUOUS
 62
     3
 10
9977.85
 20
5057.47
 30
0.0
 11
10137.7
 21
5512.47
 31
0.0
  0
LINE
  5
4D3
  8
0
  6
CONTINUOUS
 62
     3
 10
10573.0
 20
5512.47
 30
0.0
 11
10732.8
 21
5057.48
 31
0.0
  0
LINE
  5
4D4
  8
0
  6
CONTINUOUS
 62
     3
 10
10550.3
 20
5448.07
 30
0.0
 11
10687.6
 21
5057.47
 31
0.0
  0
LINE
  5
4D5
  8
0
  6
CONTINUOUS
 62
     3
 10
10183.0
 20
5512.46
 30
0.0
 11
10342.9
 21
5967.46
 31
0.0
  0
LINE
  5
4D6
  8
0
  6
CONTINUOUS
 62
     3
 10
10160.4
 20
5576.87
 30
0.0
 11
10297.6
 21
5967.46
 31
0.0
  0
LINE
  5
4D7
  8
0
  6
CONTINUOUS
 62
     3
 10
17396.7
 20
5057.48
 30
0.0
 11
17396.7
 21
5967.47
 31
0.0
  0
LINE
  5
4D8
  8
0
  6
CONTINUOUS
 62
     3
 10
17443.9
 20
5057.48
 30
0.0
 11
17443.9
 21
5967.47
 31
0.0
  0
LINE
  5
4D9
  8
0
  6
CONTINUOUS
 62
     3
 10
8773.93
 20
5967.47
 30
0.0
 11
8773.93
 21
5057.48
 31
0.0
  0
LINE
  5
4DA
  8
0
  6
CONTINUOUS
 62
     3
 10
8726.74
 20
5967.47
 30
0.0
 11
8726.74
 21
5057.48
 31
0.0
  0
LINE
  5
4DB
  8
0
  6
CONTINUOUS
 62
     3
 10
17043.0
 20
5967.46
 30
0.0
 11
17373.516062
 21
5057.48
 31
0.0
  0
LINE
  5
4DC
  8
0
  6
CONTINUOUS
 62
     3
 10
16997.6
 20
5967.46
 30
0.0
 11
17328.11241
 21
5057.48
 31
0.0
  0
LINE
  5
4DD
  8
0
  6
CONTINUOUS
 62
     3
 10
17373.515556
 20
5967.47
 30
0.0
 11
17208.3
 21
5512.47
 31
0.0
  0
LINE
  5
4DE
  8
0
  6
CONTINUOUS
 62
     3
 10
17328.115671
 20
5967.47
 30
0.0
 11
17185.6
 21
5575.01
 31
0.0
  0
LINE
  5
4DF
  8
0
  6
CONTINUOUS
 62
     3
 10
17162.9
 20
5512.47
 30
0.0
 11
16997.6
 21
5057.48
 31
0.0
  0
LINE
  5
4E0
  8
0
  6
CONTINUOUS
 62
     3
 10
17185.6
 20
5449.93
 30
0.0
 11
17043.0
 21
5057.48
 31
0.0
  0
LINE
  5
4E1
  8
0
  6
CONTINUOUS
 62
     3
 10
8797.147645
 20
5057.48
 30
0.0
 11
9127.65
 21
5967.46
 31
0.0
  0
LINE
  5
4E2
  8
0
  6
CONTINUOUS
 62
     3
 10
8842.577645
 20
5057.48
 30
0.0
 11
9173.08
 21
5967.46
 31
0.0
  0
LINE
  5
4E3
  8
0
  6
CONTINUOUS
 62
     3
 10
8962.39
 20
5512.48
 30
0.0
 11
8797.13396
 21
5967.47
 31
0.0
  0
LINE
  5
4E4
  8
0
  6
CONTINUOUS
 62
     3
 10
8985.11
 20
5575.01
 30
0.0
 11
8842.563942
 21
5967.47
 31
0.0
  0
LINE
  5
4E5
  8
0
  6
CONTINUOUS
 62
     3
 10
9173.07
 20
5057.48
 30
0.0
 11
9007.82
 21
5512.47
 31
0.0
  0
LINE
  5
4E6
  8
0
  6
CONTINUOUS
 62
     3
 10
9127.65
 20
5057.48
 30
0.0
 11
8985.11
 21
5449.93
 31
0.0
  0
LINE
  5
4E7
  8
0
  6
CONTINUOUS
 62
     3
 10
18952.9
 20
5967.46
 30
0.0
 11
18633.1
 21
5057.48
 31
0.0
  0
LINE
  5
4E8
  8
0
  6
CONTINUOUS
 62
     3
 10
18907.6
 20
5967.46
 30
0.0
 11
18587.9
 21
5057.47
 31
0.0
  0
LINE
  5
4E9
  8
0
  6
CONTINUOUS
 62
     3
 10
18562.8
 20
5057.48
 30
0.0
 11
18243.1
 21
5967.47
 31
0.0
  0
LINE
  5
4EA
  8
0
  6
CONTINUOUS
 62
     3
 10
18517.6
 20
5057.48
 30
0.0
 11
18197.8
 21
5967.47
 31
0.0
  0
LINE
  5
4EB
  8
0
  6
CONTINUOUS
 62
     3
 10
18633.1
 20
5967.47
 30
0.0
 11
18770.3
 21
5576.88
 31
0.0
  0
LINE
  5
4EC
  8
0
  6
CONTINUOUS
 62
     3
 10
18587.8
 20
5967.47
 30
0.0
 11
18747.7
 21
5512.47
 31
0.0
  0
LINE
  5
4ED
  8
0
  6
CONTINUOUS
 62
     3
 10
18243.1
 20
5057.47
 30
0.0
 11
18380.4
 21
5448.06
 31
0.0
  0
LINE
  5
4EE
  8
0
  6
CONTINUOUS
 62
     3
 10
18197.9
 20
5057.47
 30
0.0
 11
18357.7
 21
5512.47
 31
0.0
  0
LINE
  5
4EF
  8
0
  6
CONTINUOUS
 62
     3
 10
18793.0
 20
5512.47
 30
0.0
 11
18952.8
 21
5057.48
 31
0.0
  0
LINE
  5
4F0
  8
0
  6
CONTINUOUS
 62
     3
 10
18770.3
 20
5448.07
 30
0.0
 11
18907.6
 21
5057.47
 31
0.0
  0
LINE
  5
4F1
  8
0
  6
CONTINUOUS
 62
     3
 10
18403.0
 20
5512.46
 30
0.0
 11
18562.9
 21
5967.46
 31
0.0
  0
LINE
  5
4F2
  8
0
  6
CONTINUOUS
 62
     3
 10
18380.4
 20
5576.87
 30
0.0
 11
18517.6
 21
5967.46
 31
0.0
  0
LINE
  5
4F3
  8
0
  6
CONTINUOUS
 62
     3
 10
25972.8
 20
5967.47
 30
0.0
 11
25653.1
 21
5057.48
 31
0.0
  0
LINE
  5
4F4
  8
0
  6
CONTINUOUS
 62
     3
 10
25927.6
 20
5967.47
 30
0.0
 11
25607.8
 21
5057.48
 31
0.0
  0
LINE
  5
4F5
  8
0
  6
CONTINUOUS
 62
     3
 10
25582.8
 20
5057.48
 30
0.0
 11
25263.1
 21
5967.46
 31
0.0
  0
LINE
  5
4F6
  8
0
  6
CONTINUOUS
 62
     3
 10
25537.6
 20
5057.48
 30
0.0
 11
25217.8
 21
5967.47
 31
0.0
  0
LINE
  5
4F7
  8
0
  6
CONTINUOUS
 62
     3
 10
25653.1
 20
5967.46
 30
0.0
 11
25790.3
 21
5576.88
 31
0.0
  0
LINE
  5
4F8
  8
0
  6
CONTINUOUS
 62
     3
 10
25607.8
 20
5967.46
 30
0.0
 11
25767.7
 21
5512.47
 31
0.0
  0
LINE
  5
4F9
  8
0
  6
CONTINUOUS
 62
     3
 10
25263.1
 20
5057.48
 30
0.0
 11
25400.3
 21
5448.07
 31
0.0
  0
LINE
  5
4FA
  8
0
  6
CONTINUOUS
 62
     3
 10
25217.8
 20
5057.48
 30
0.0
 11
25377.7
 21
5512.47
 31
0.0
  0
LINE
  5
4FB
  8
0
  6
CONTINUOUS
 62
     3
 10
25813.0
 20
5512.47
 30
0.0
 11
25972.8
 21
5057.47
 31
0.0
  0
LINE
  5
4FC
  8
0
  6
CONTINUOUS
 62
     3
 10
25790.3
 20
5448.07
 30
0.0
 11
25927.6
 21
5057.48
 31
0.0
  0
LINE
  5
4FD
  8
0
  6
CONTINUOUS
 62
     3
 10
25423.0
 20
5512.47
 30
0.0
 11
25582.8
 21
5967.47
 31
0.0
  0
LINE
  5
4FE
  8
0
  6
CONTINUOUS
 62
     3
 10
25400.3
 20
5576.88
 30
0.0
 11
25537.6
 21
5967.46
 31
0.0
  0
LINE
  5
4FF
  8
0
  6
CONTINUOUS
 62
     3
 10
25192.8
 20
5967.47
 30
0.0
 11
24873.1
 21
5057.48
 31
0.0
  0
LINE
  5
500
  8
0
  6
CONTINUOUS
 62
     3
 10
25147.6
 20
5967.47
 30
0.0
 11
24827.8
 21
5057.48
 31
0.0
  0
LINE
  5
501
  8
0
  6
CONTINUOUS
 62
     3
 10
24802.8
 20
5057.48
 30
0.0
 11
24483.1
 21
5967.46
 31
0.0
  0
LINE
  5
502
  8
0
  6
CONTINUOUS
 62
     3
 10
24757.6
 20
5057.48
 30
0.0
 11
24437.8
 21
5967.47
 31
0.0
  0
LINE
  5
503
  8
0
  6
CONTINUOUS
 62
     3
 10
24873.1
 20
5967.46
 30
0.0
 11
25010.3
 21
5576.87
 31
0.0
  0
LINE
  5
504
  8
0
  6
CONTINUOUS
 62
     3
 10
24827.8
 20
5967.47
 30
0.0
 11
24987.7
 21
5512.47
 31
0.0
  0
LINE
  5
505
  8
0
  6
CONTINUOUS
 62
     3
 10
24483.1
 20
5057.48
 30
0.0
 11
24620.3
 21
5448.07
 31
0.0
  0
LINE
  5
506
  8
0
  6
CONTINUOUS
 62
     3
 10
24437.8
 20
5057.48
 30
0.0
 11
24597.7
 21
5512.47
 31
0.0
  0
LINE
  5
507
  8
0
  6
CONTINUOUS
 62
     3
 10
25033.0
 20
5512.47
 30
0.0
 11
25192.8
 21
5057.48
 31
0.0
  0
LINE
  5
508
  8
0
  6
CONTINUOUS
 62
     3
 10
25010.3
 20
5448.07
 30
0.0
 11
25147.6
 21
5057.48
 31
0.0
  0
LINE
  5
509
  8
0
  6
CONTINUOUS
 62
     3
 10
24643.0
 20
5512.47
 30
0.0
 11
24802.8
 21
5967.47
 31
0.0
  0
LINE
  5
50A
  8
0
  6
CONTINUOUS
 62
     3
 10
24620.3
 20
5576.88
 30
0.0
 11
24757.6
 21
5967.47
 31
0.0
  0
LINE
  5
50B
  8
0
  6
CONTINUOUS
 62
     3
 10
24412.8
 20
5967.47
 30
0.0
 11
24093.1
 21
5057.48
 31
0.0
  0
LINE
  5
50C
  8
0
  6
CONTINUOUS
 62
     3
 10
24367.6
 20
5967.47
 30
0.0
 11
24047.8
 21
5057.48
 31
0.0
  0
LINE
  5
50D
  8
0
  6
CONTINUOUS
 62
     3
 10
24022.8
 20
5057.47
 30
0.0
 11
23703.1
 21
5967.47
 31
0.0
  0
LINE
  5
50E
  8
0
  6
CONTINUOUS
 62
     3
 10
23977.6
 20
5057.47
 30
0.0
 11
23657.8
 21
5967.47
 31
0.0
  0
LINE
  5
50F
  8
0
  6
CONTINUOUS
 62
     3
 10
24093.1
 20
5967.46
 30
0.0
 11
24230.3
 21
5576.87
 31
0.0
  0
LINE
  5
510
  8
0
  6
CONTINUOUS
 62
     3
 10
24047.8
 20
5967.47
 30
0.0
 11
24207.7
 21
5512.47
 31
0.0
  0
LINE
  5
511
  8
0
  6
CONTINUOUS
 62
     3
 10
23703.1
 20
5057.48
 30
0.0
 11
23840.3
 21
5448.07
 31
0.0
  0
LINE
  5
512
  8
0
  6
CONTINUOUS
 62
     3
 10
23657.8
 20
5057.48
 30
0.0
 11
23817.7
 21
5512.47
 31
0.0
  0
LINE
  5
513
  8
0
  6
CONTINUOUS
 62
     3
 10
24253.0
 20
5512.47
 30
0.0
 11
24412.8
 21
5057.48
 31
0.0
  0
LINE
  5
514
  8
0
  6
CONTINUOUS
 62
     3
 10
24230.3
 20
5448.07
 30
0.0
 11
24367.6
 21
5057.47
 31
0.0
  0
LINE
  5
515
  8
0
  6
CONTINUOUS
 62
     3
 10
23863.0
 20
5512.47
 30
0.0
 11
24022.8
 21
5967.47
 31
0.0
  0
LINE
  5
516
  8
0
  6
CONTINUOUS
 62
     3
 10
23840.3
 20
5576.88
 30
0.0
 11
23977.6
 21
5967.47
 31
0.0
  0
LINE
  5
517
  8
0
  6
CONTINUOUS
 62
     3
 10
23632.8
 20
5967.47
 30
0.0
 11
23313.1
 21
5057.48
 31
0.0
  0
LINE
  5
518
  8
0
  6
CONTINUOUS
 62
     3
 10
23587.6
 20
5967.47
 30
0.0
 11
23267.8
 21
5057.48
 31
0.0
  0
LINE
  5
519
  8
0
  6
CONTINUOUS
 62
     3
 10
23242.8
 20
5057.48
 30
0.0
 11
22923.1
 21
5967.47
 31
0.0
  0
LINE
  5
51A
  8
0
  6
CONTINUOUS
 62
     3
 10
23197.6
 20
5057.48
 30
0.0
 11
22877.8
 21
5967.47
 31
0.0
  0
LINE
  5
51B
  8
0
  6
CONTINUOUS
 62
     3
 10
23313.1
 20
5967.46
 30
0.0
 11
23450.3
 21
5576.87
 31
0.0
  0
LINE
  5
51C
  8
0
  6
CONTINUOUS
 62
     3
 10
23267.8
 20
5967.46
 30
0.0
 11
23427.7
 21
5512.47
 31
0.0
  0
LINE
  5
51D
  8
0
  6
CONTINUOUS
 62
     3
 10
22923.1
 20
5057.48
 30
0.0
 11
23060.3
 21
5448.07
 31
0.0
  0
LINE
  5
51E
  8
0
  6
CONTINUOUS
 62
     3
 10
22877.8
 20
5057.47
 30
0.0
 11
23037.7
 21
5512.47
 31
0.0
  0
LINE
  5
51F
  8
0
  6
CONTINUOUS
 62
     3
 10
23473.0
 20
5512.47
 30
0.0
 11
23632.8
 21
5057.47
 31
0.0
  0
LINE
  5
520
  8
0
  6
CONTINUOUS
 62
     3
 10
23450.3
 20
5448.07
 30
0.0
 11
23587.6
 21
5057.47
 31
0.0
  0
LINE
  5
521
  8
0
  6
CONTINUOUS
 62
     3
 10
23083.0
 20
5512.47
 30
0.0
 11
23242.8
 21
5967.47
 31
0.0
  0
LINE
  5
522
  8
0
  6
CONTINUOUS
 62
     3
 10
23060.3
 20
5576.87
 30
0.0
 11
23197.6
 21
5967.47
 31
0.0
  0
LINE
  5
523
  8
0
  6
CONTINUOUS
 62
     3
 10
22852.8
 20
5967.47
 30
0.0
 11
22533.1
 21
5057.48
 31
0.0
  0
LINE
  5
524
  8
0
  6
CONTINUOUS
 62
     3
 10
22807.6
 20
5967.47
 30
0.0
 11
22487.8
 21
5057.48
 31
0.0
  0
LINE
  5
525
  8
0
  6
CONTINUOUS
 62
     3
 10
22462.8
 20
5057.47
 30
0.0
 11
22143.1
 21
5967.46
 31
0.0
  0
LINE
  5
526
  8
0
  6
CONTINUOUS
 62
     3
 10
22417.6
 20
5057.48
 30
0.0
 11
22097.8
 21
5967.47
 31
0.0
  0
LINE
  5
527
  8
0
  6
CONTINUOUS
 62
     3
 10
22533.1
 20
5967.46
 30
0.0
 11
22670.3
 21
5576.87
 31
0.0
  0
LINE
  5
528
  8
0
  6
CONTINUOUS
 62
     3
 10
22487.8
 20
5967.46
 30
0.0
 11
22647.7
 21
5512.47
 31
0.0
  0
LINE
  5
529
  8
0
  6
CONTINUOUS
 62
     3
 10
22143.1
 20
5057.48
 30
0.0
 11
22280.3
 21
5448.07
 31
0.0
  0
LINE
  5
52A
  8
0
  6
CONTINUOUS
 62
     3
 10
22097.8
 20
5057.47
 30
0.0
 11
22257.7
 21
5512.47
 31
0.0
  0
LINE
  5
52B
  8
0
  6
CONTINUOUS
 62
     3
 10
22693.0
 20
5512.47
 30
0.0
 11
22852.8
 21
5057.48
 31
0.0
  0
LINE
  5
52C
  8
0
  6
CONTINUOUS
 62
     3
 10
22670.3
 20
5448.07
 30
0.0
 11
22807.6
 21
5057.47
 31
0.0
  0
LINE
  5
52D
  8
0
  6
CONTINUOUS
 62
     3
 10
22303.0
 20
5512.47
 30
0.0
 11
22462.8
 21
5967.47
 31
0.0
  0
LINE
  5
52E
  8
0
  6
CONTINUOUS
 62
     3
 10
22280.3
 20
5576.87
 30
0.0
 11
22417.6
 21
5967.47
 31
0.0
  0
LINE
  5
52F
  8
0
  6
CONTINUOUS
 62
     3
 10
22072.8
 20
5967.47
 30
0.0
 11
21753.1
 21
5057.48
 31
0.0
  0
LINE
  5
530
  8
0
  6
CONTINUOUS
 62
     3
 10
22027.6
 20
5967.47
 30
0.0
 11
21707.8
 21
5057.47
 31
0.0
  0
LINE
  5
531
  8
0
  6
CONTINUOUS
 62
     3
 10
21682.8
 20
5057.47
 30
0.0
 11
21363.1
 21
5967.46
 31
0.0
  0
LINE
  5
532
  8
0
  6
CONTINUOUS
 62
     3
 10
21637.6
 20
5057.47
 30
0.0
 11
21317.8
 21
5967.47
 31
0.0
  0
LINE
  5
533
  8
0
  6
CONTINUOUS
 62
     3
 10
21753.1
 20
5967.46
 30
0.0
 11
21890.3
 21
5576.87
 31
0.0
  0
LINE
  5
534
  8
0
  6
CONTINUOUS
 62
     3
 10
21707.8
 20
5967.47
 30
0.0
 11
21867.7
 21
5512.47
 31
0.0
  0
LINE
  5
535
  8
0
  6
CONTINUOUS
 62
     3
 10
21363.1
 20
5057.48
 30
0.0
 11
21500.3
 21
5448.06
 31
0.0
  0
LINE
  5
536
  8
0
  6
CONTINUOUS
 62
     3
 10
21317.8
 20
5057.47
 30
0.0
 11
21477.7
 21
5512.47
 31
0.0
  0
LINE
  5
537
  8
0
  6
CONTINUOUS
 62
     3
 10
21913.0
 20
5512.47
 30
0.0
 11
22072.8
 21
5057.48
 31
0.0
  0
LINE
  5
538
  8
0
  6
CONTINUOUS
 62
     3
 10
21890.3
 20
5448.07
 30
0.0
 11
22027.6
 21
5057.47
 31
0.0
  0
LINE
  5
539
  8
0
  6
CONTINUOUS
 62
     3
 10
21523.0
 20
5512.47
 30
0.0
 11
21682.8
 21
5967.46
 31
0.0
  0
LINE
  5
53A
  8
0
  6
CONTINUOUS
 62
     3
 10
21500.3
 20
5576.87
 30
0.0
 11
21637.6
 21
5967.47
 31
0.0
  0
LINE
  5
53B
  8
0
  6
CONTINUOUS
 62
     3
 10
21292.8
 20
5967.46
 30
0.0
 11
20973.1
 21
5057.48
 31
0.0
  0
LINE
  5
53C
  8
0
  6
CONTINUOUS
 62
     3
 10
21247.6
 20
5967.47
 30
0.0
 11
20927.8
 21
5057.47
 31
0.0
  0
LINE
  5
53D
  8
0
  6
CONTINUOUS
 62
     3
 10
20902.8
 20
5057.47
 30
0.0
 11
20583.1
 21
5967.47
 31
0.0
  0
LINE
  5
53E
  8
0
  6
CONTINUOUS
 62
     3
 10
20857.6
 20
5057.47
 30
0.0
 11
20537.8
 21
5967.47
 31
0.0
  0
LINE
  5
53F
  8
0
  6
CONTINUOUS
 62
     3
 10
20973.1
 20
5967.47
 30
0.0
 11
21110.3
 21
5576.88
 31
0.0
  0
LINE
  5
540
  8
0
  6
CONTINUOUS
 62
     3
 10
20927.8
 20
5967.47
 30
0.0
 11
21087.7
 21
5512.47
 31
0.0
  0
LINE
  5
541
  8
0
  6
CONTINUOUS
 62
     3
 10
20583.1
 20
5057.48
 30
0.0
 11
20720.3
 21
5448.06
 31
0.0
  0
LINE
  5
542
  8
0
  6
CONTINUOUS
 62
     3
 10
20537.8
 20
5057.47
 30
0.0
 11
20697.7
 21
5512.47
 31
0.0
  0
LINE
  5
543
  8
0
  6
CONTINUOUS
 62
     3
 10
21133.0
 20
5512.47
 30
0.0
 11
21292.8
 21
5057.48
 31
0.0
  0
LINE
  5
544
  8
0
  6
CONTINUOUS
 62
     3
 10
21110.3
 20
5448.07
 30
0.0
 11
21247.6
 21
5057.47
 31
0.0
  0
LINE
  5
545
  8
0
  6
CONTINUOUS
 62
     3
 10
20743.0
 20
5512.47
 30
0.0
 11
20902.8
 21
5967.46
 31
0.0
  0
LINE
  5
546
  8
0
  6
CONTINUOUS
 62
     3
 10
20720.3
 20
5576.87
 30
0.0
 11
20857.6
 21
5967.46
 31
0.0
  0
LINE
  5
547
  8
0
  6
CONTINUOUS
 62
     3
 10
20512.8
 20
5967.46
 30
0.0
 11
20193.1
 21
5057.48
 31
0.0
  0
LINE
  5
548
  8
0
  6
CONTINUOUS
 62
     3
 10
20467.6
 20
5967.46
 30
0.0
 11
20147.8
 21
5057.47
 31
0.0
  0
LINE
  5
549
  8
0
  6
CONTINUOUS
 62
     3
 10
20122.8
 20
5057.48
 30
0.0
 11
19803.1
 21
5967.47
 31
0.0
  0
LINE
  5
54A
  8
0
  6
CONTINUOUS
 62
     3
 10
20077.6
 20
5057.48
 30
0.0
 11
19757.8
 21
5967.47
 31
0.0
  0
LINE
  5
54B
  8
0
  6
CONTINUOUS
 62
     3
 10
20193.1
 20
5967.46
 30
0.0
 11
20330.3
 21
5576.87
 31
0.0
  0
LINE
  5
54C
  8
0
  6
CONTINUOUS
 62
     3
 10
20147.8
 20
5967.46
 30
0.0
 11
20307.7
 21
5512.47
 31
0.0
  0
LINE
  5
54D
  8
0
  6
CONTINUOUS
 62
     3
 10
19803.1
 20
5057.47
 30
0.0
 11
19940.3
 21
5448.06
 31
0.0
  0
LINE
  5
54E
  8
0
  6
CONTINUOUS
 62
     3
 10
19757.8
 20
5057.47
 30
0.0
 11
19917.7
 21
5512.47
 31
0.0
  0
LINE
  5
54F
  8
0
  6
CONTINUOUS
 62
     3
 10
20353.0
 20
5512.47
 30
0.0
 11
20512.8
 21
5057.48
 31
0.0
  0
LINE
  5
550
  8
0
  6
CONTINUOUS
 62
     3
 10
20330.3
 20
5448.07
 30
0.0
 11
20467.6
 21
5057.47
 31
0.0
  0
LINE
  5
551
  8
0
  6
CONTINUOUS
 62
     3
 10
19963.0
 20
5512.47
 30
0.0
 11
20122.8
 21
5967.46
 31
0.0
  0
LINE
  5
552
  8
0
  6
CONTINUOUS
 62
     3
 10
19940.3
 20
5576.87
 30
0.0
 11
20077.6
 21
5967.46
 31
0.0
  0
LINE
  5
553
  8
0
  6
CONTINUOUS
 62
     3
 10
19732.8
 20
5967.46
 30
0.0
 11
19413.1
 21
5057.48
 31
0.0
  0
LINE
  5
554
  8
0
  6
CONTINUOUS
 62
     3
 10
19687.6
 20
5967.46
 30
0.0
 11
19367.8
 21
5057.47
 31
0.0
  0
LINE
  5
555
  8
0
  6
CONTINUOUS
 62
     3
 10
19342.8
 20
5057.47
 30
0.0
 11
19023.1
 21
5967.46
 31
0.0
  0
LINE
  5
556
  8
0
  6
CONTINUOUS
 62
     3
 10
19297.6
 20
5057.48
 30
0.0
 11
18977.8
 21
5967.47
 31
0.0
  0
LINE
  5
557
  8
0
  6
CONTINUOUS
 62
     3
 10
19413.1
 20
5967.47
 30
0.0
 11
19550.3
 21
5576.87
 31
0.0
  0
LINE
  5
558
  8
0
  6
CONTINUOUS
 62
     3
 10
19367.8
 20
5967.47
 30
0.0
 11
19527.7
 21
5512.47
 31
0.0
  0
LINE
  5
559
  8
0
  6
CONTINUOUS
 62
     3
 10
19023.1
 20
5057.47
 30
0.0
 11
19160.4
 21
5448.06
 31
0.0
  0
LINE
  5
55A
  8
0
  6
CONTINUOUS
 62
     3
 10
18977.9
 20
5057.47
 30
0.0
 11
19137.7
 21
5512.47
 31
0.0
  0
LINE
  5
55B
  8
0
  6
CONTINUOUS
 62
     3
 10
19573.0
 20
5512.47
 30
0.0
 11
19732.8
 21
5057.48
 31
0.0
  0
LINE
  5
55C
  8
0
  6
CONTINUOUS
 62
     3
 10
19550.3
 20
5448.07
 30
0.0
 11
19687.6
 21
5057.47
 31
0.0
  0
LINE
  5
55D
  8
0
  6
CONTINUOUS
 62
     3
 10
19183.0
 20
5512.47
 30
0.0
 11
19342.9
 21
5967.46
 31
0.0
  0
LINE
  5
55E
  8
0
  6
CONTINUOUS
 62
     3
 10
19160.4
 20
5576.87
 30
0.0
 11
19297.6
 21
5967.46
 31
0.0
  0
LINE
  5
55F
  8
0
  6
CONTINUOUS
 62
     3
 10
26396.7
 20
5062.48
 30
0.0
 11
26396.7
 21
5967.47
 31
0.0
  0
LINE
  5
560
  8
0
  6
CONTINUOUS
 62
     3
 10
26443.9
 20
5062.48
 30
0.0
 11
26443.9
 21
5967.47
 31
0.0
  0
LINE
  5
561
  8
0
  6
CONTINUOUS
 62
     3
 10
17773.9
 20
5967.47
 30
0.0
 11
17773.9
 21
5057.48
 31
0.0
  0
LINE
  5
562
  8
0
  6
CONTINUOUS
 62
     3
 10
17726.7
 20
5967.47
 30
0.0
 11
17726.7
 21
5057.48
 31
0.0
  0
LINE
  5
563
  8
0
  6
CONTINUOUS
 62
     3
 10
26043.0
 20
5967.46
 30
0.0
 11
26371.7
 21
5062.48
 31
0.0
  0
LINE
  5
564
  8
0
  6
CONTINUOUS
 62
     3
 10
25997.6
 20
5967.46
 30
0.0
 11
26326.3
 21
5062.47
 31
0.0
  0
LINE
  5
565
  8
0
  6
CONTINUOUS
 62
     3
 10
26373.515556
 20
5967.47
 30
0.0
 11
26208.3
 21
5512.47
 31
0.0
  0
LINE
  5
566
  8
0
  6
CONTINUOUS
 62
     3
 10
26328.115671
 20
5967.47
 30
0.0
 11
26185.6
 21
5575.01
 31
0.0
  0
LINE
  5
567
  8
0
  6
CONTINUOUS
 62
     3
 10
26162.9
 20
5512.47
 30
0.0
 11
25997.6
 21
5057.48
 31
0.0
  0
LINE
  5
568
  8
0
  6
CONTINUOUS
 62
     3
 10
26185.6
 20
5449.93
 30
0.0
 11
26043.0
 21
5057.48
 31
0.0
  0
LINE
  5
569
  8
0
  6
CONTINUOUS
 62
     3
 10
17797.18759
 20
5057.48
 30
0.0
 11
18127.7
 21
5967.46
 31
0.0
  0
LINE
  5
56A
  8
0
  6
CONTINUOUS
 62
     3
 10
17842.58759
 20
5057.48
 30
0.0
 11
18173.1
 21
5967.46
 31
0.0
  0
LINE
  5
56B
  8
0
  6
CONTINUOUS
 62
     3
 10
17962.4
 20
5512.48
 30
0.0
 11
17797.184404
 21
5967.47
 31
0.0
  0
LINE
  5
56C
  8
0
  6
CONTINUOUS
 62
     3
 10
17985.1
 20
5575.01
 30
0.0
 11
17842.584329
 21
5967.47
 31
0.0
  0
LINE
  5
56D
  8
0
  6
CONTINUOUS
 62
     3
 10
18173.1
 20
5057.48
 30
0.0
 11
18007.8
 21
5512.47
 31
0.0
  0
LINE
  5
56E
  8
0
  6
CONTINUOUS
 62
     3
 10
18127.6
 20
5057.48
 30
0.0
 11
17985.1
 21
5449.93
 31
0.0
  0
LINE
  5
56F
  8
0
  6
CONTINUOUS
 62
     3
 10
8441.78
 20
5966.516655
 30
0.0
 11
8441.78
 21
5063.42
 31
0.0
  0
LINE
  5
570
  8
0
  6
CONTINUOUS
 62
     3
 10
8399.08
 20
5963.829499
 30
0.0
 11
8399.08
 21
5066.1
 31
0.0
  0
LINE
  5
571
  8
0
  6
CONTINUOUS
 62
     3
 10
8118.36
 20
5078.76
 30
0.0
 11
8222.12
 21
5435.92
 31
0.0
  0
LINE
  5
572
  8
0
  6
CONTINUOUS
 62
     3
 10
8074.7
 20
5081.5
 30
0.0
 11
8199.9
 21
5512.45
 31
0.0
  0
LINE
  5
573
  8
0
  6
CONTINUOUS
 62
     3
 10
8049.75
 20
5941.84
 30
0.0
 11
7814.73
 21
5097.85
 31
0.0
  0
LINE
  5
574
  8
0
  6
CONTINUOUS
 62
     3
 10
8004.63
 20
5939.0
 30
0.0
 11
7771.16
 21
5100.59
 31
0.0
  0
LINE
  5
575
  8
0
  6
CONTINUOUS
 62
     3
 10
8049.75
 20
5083.07
 30
0.0
 11
7930.18
 21
5512.44
 31
0.0
  0
LINE
  5
576
  8
0
  6
CONTINUOUS
 62
     3
 10
8004.63
 20
5085.91
 30
0.0
 11
7908.02
 21
5432.86
 31
0.0
  0
LINE
  5
577
  8
0
  6
CONTINUOUS
 62
     3
 10
7746.23
 20
5922.73
 30
0.0
 11
7626.62
 21
5512.44
 31
0.0
  0
LINE
  5
578
  8
0
  6
CONTINUOUS
 62
     3
 10
7700.92
 20
5919.88
 30
0.0
 11
7604.38
 21
5588.73
 31
0.0
  0
LINE
  5
579
  8
0
  6
CONTINUOUS
 62
     3
 10
7746.21
 20
5102.18
 30
0.0
 11
7511.3
 21
5907.97
 31
0.0
  0
LINE
  5
57A
  8
0
  6
CONTINUOUS
 62
     3
 10
7700.9
 20
5105.03
 30
0.0
 11
7467.63
 21
5905.22
 31
0.0
  0
LINE
  5
57B
  8
0
  6
CONTINUOUS
 62
     3
 10
7442.68
 20
5903.64
 30
0.0
 11
7207.91
 21
5136.06
 31
0.0
  0
LINE
  5
57C
  8
0
  6
CONTINUOUS
 62
     3
 10
7397.15
 20
5900.77
 30
0.0
 11
7164.1
 21
5138.81
 31
0.0
  0
LINE
  5
57D
  8
0
  6
CONTINUOUS
 62
     3
 10
7442.68
 20
5121.28
 30
0.0
 11
7323.04
 21
5512.46
 31
0.0
  0
LINE
  5
57E
  8
0
  6
CONTINUOUS
 62
     3
 10
7397.16
 20
5124.14
 30
0.0
 11
7300.71
 21
5439.47
 31
0.0
  0
LINE
  5
57F
  8
0
  6
CONTINUOUS
 62
     3
 10
7139.14
 20
5884.53
 30
0.0
 11
7019.46
 21
5512.46
 31
0.0
  0
LINE
  5
580
  8
0
  6
CONTINUOUS
 62
     3
 10
7093.36
 20
5881.65
 30
0.0
 11
6997.03
 21
5582.18
 31
0.0
  0
LINE
  5
581
  8
0
  6
CONTINUOUS
 62
     3
 10
7139.15
 20
5140.37
 30
0.0
 11
6904.52
 21
5869.77
 31
0.0
  0
LINE
  5
582
  8
0
  6
CONTINUOUS
 62
     3
 10
7093.37
 20
5143.25
 30
0.0
 11
6860.56
 21
5867.0
 31
0.0
  0
LINE
  5
583
  8
0
  6
CONTINUOUS
 62
     3
 10
6601.18
 20
5174.24
 30
0.0
 11
6835.62
 21
5865.45
 31
0.0
  0
LINE
  5
584
  8
0
  6
CONTINUOUS
 62
     3
 10
6557.03
 20
5177.02
 30
0.0
 11
6789.55
 21
5862.55
 31
0.0
  0
LINE
  5
585
  8
0
  6
CONTINUOUS
 62
     3
 10
6601.18
 20
5850.69
 30
0.0
 11
6693.35
 21
5578.94
 31
0.0
  0
LINE
  5
586
  8
0
  6
CONTINUOUS
 62
     3
 10
6557.03
 20
5847.91
 30
0.0
 11
6670.81
 21
5512.47
 31
0.0
  0
LINE
  5
587
  8
0
  6
CONTINUOUS
 62
     3
 10
6297.86
 20
5193.33
 30
0.0
 11
6389.64
 21
5449.23
 31
0.0
  0
LINE
  5
588
  8
0
  6
CONTINUOUS
 62
     3
 10
6253.49
 20
5196.12
 30
0.0
 11
6366.96
 21
5512.47
 31
0.0
  0
LINE
  5
589
  8
0
  6
CONTINUOUS
 62
     3
 10
6485.67
 20
5181.5
 30
0.0
 11
6253.5
 21
5828.81
 31
0.0
  0
LINE
  5
58A
  8
0
  6
CONTINUOUS
 62
     3
 10
6532.08
 20
5178.58
 30
0.0
 11
6297.86
 21
5831.6
 31
0.0
  0
LINE
  5
58B
  8
0
  6
CONTINUOUS
 62
     3
 10
6228.53
 20
5827.25
 30
0.0
 11
5994.57
 21
5212.42
 31
0.0
  0
LINE
  5
58C
  8
0
  6
CONTINUOUS
 62
     3
 10
6181.73
 20
5824.3
 30
0.0
 11
5949.95
 21
5215.23
 31
0.0
  0
LINE
  5
58D
  8
0
  6
CONTINUOUS
 62
     3
 10
5994.59
 20
5812.51
 30
0.0
 11
6085.93
 21
5572.49
 31
0.0
  0
LINE
  5
58E
  8
0
  6
CONTINUOUS
 62
     3
 10
5949.96
 20
5809.7
 30
0.0
 11
6063.08
 21
5512.45
 31
0.0
  0
LINE
  5
58F
  8
0
  6
CONTINUOUS
 62
     3
 10
5691.35
 20
5231.49
 30
0.0
 11
5782.16
 21
5455.62
 31
0.0
  0
LINE
  5
590
  8
0
  6
CONTINUOUS
 62
     3
 10
5646.42
 20
5234.32
 30
0.0
 11
5759.13
 21
5512.47
 31
0.0
  0
LINE
  5
591
  8
0
  6
CONTINUOUS
 62
     3
 10
5925.0
 20
5216.79
 30
0.0
 11
5691.34
 21
5793.44
 31
0.0
  0
LINE
  5
592
  8
0
  6
CONTINUOUS
 62
     3
 10
5877.73
 20
5219.77
 30
0.0
 11
5646.42
 21
5790.61
 31
0.0
  0
LINE
  5
593
  8
0
  6
CONTINUOUS
 62
     3
 10
8244.36
 20
5512.45
 30
0.0
 11
8375.05813
 21
5962.317777
 31
0.0
  0
LINE
  5
594
  8
0
  6
CONTINUOUS
 62
     3
 10
8222.13
 20
5588.97
 30
0.0
 11
8329.768072
 21
5959.467625
 31
0.0
  0
LINE
  5
595
  8
0
  6
CONTINUOUS
 62
     3
 10
7908.01
 20
5592.03
 30
0.0
 11
7814.72
 21
5927.05
 31
0.0
  0
LINE
  5
596
  8
0
  6
CONTINUOUS
 62
     3
 10
7885.86
 20
5512.45
 30
0.0
 11
7771.17
 21
5924.31
 31
0.0
  0
LINE
  5
597
  8
0
  6
CONTINUOUS
 62
     3
 10
7604.38
 20
5436.16
 30
0.0
 11
7511.33
 21
5116.95
 31
0.0
  0
LINE
  5
598
  8
0
  6
CONTINUOUS
 62
     3
 10
7582.15
 20
5512.44
 30
0.0
 11
7467.65
 21
5119.7
 31
0.0
  0
LINE
  5
599
  8
0
  6
CONTINUOUS
 62
     3
 10
7300.71
 20
5585.46
 30
0.0
 11
7207.91
 21
5888.87
 31
0.0
  0
LINE
  5
59A
  8
0
  6
CONTINUOUS
 62
     3
 10
7278.38
 20
5512.47
 30
0.0
 11
7164.1
 21
5886.12
 31
0.0
  0
LINE
  5
59B
  8
0
  6
CONTINUOUS
 62
     3
 10
6997.03
 20
5442.73
 30
0.0
 11
6904.53
 21
5155.15
 31
0.0
  0
LINE
  5
59C
  8
0
  6
CONTINUOUS
 62
     3
 10
6974.6
 20
5512.46
 30
0.0
 11
6860.56
 21
5157.92
 31
0.0
  0
LINE
  5
59D
  8
0
  6
CONTINUOUS
 62
     3
 10
6715.9
 20
5512.47
 30
0.0
 11
6835.62
 21
5159.49
 31
0.0
  0
LINE
  5
59E
  8
0
  6
CONTINUOUS
 62
     3
 10
6693.35
 20
5446.0
 30
0.0
 11
6789.54
 21
5162.39
 31
0.0
  0
LINE
  5
59F
  8
0
  6
CONTINUOUS
 62
     3
 10
6412.32
 20
5512.47
 30
0.0
 11
6532.08
 21
5846.35
 31
0.0
  0
LINE
  5
5A0
  8
0
  6
CONTINUOUS
 62
     3
 10
6389.64
 20
5575.71
 30
0.0
 11
6485.66
 21
5843.43
 31
0.0
  0
LINE
  5
5A1
  8
0
  6
CONTINUOUS
 62
     3
 10
6108.77
 20
5512.46
 30
0.0
 11
6228.55
 21
5197.68
 31
0.0
  0
LINE
  5
5A2
  8
0
  6
CONTINUOUS
 62
     3
 10
6085.92
 20
5452.43
 30
0.0
 11
6181.74
 21
5200.63
 31
0.0
  0
LINE
  5
5A3
  8
0
  6
CONTINUOUS
 62
     3
 10
5805.2
 20
5512.47
 30
0.0
 11
5925.01
 21
5808.14
 31
0.0
  0
LINE
  5
5A4
  8
0
  6
CONTINUOUS
 62
     3
 10
5782.16
 20
5569.32
 30
0.0
 11
5877.73
 21
5805.16
 31
0.0
  0
LINE
  5
5A5
  8
0
  6
CONTINUOUS
 62
     3
 10
5621.48
 20
5789.04
 30
0.0
 11
5388.19
 21
5250.57
 31
0.0
  0
LINE
  5
5A6
  8
0
  6
CONTINUOUS
 62
     3
 10
5573.64
 20
5786.03
 30
0.0
 11
5342.89
 21
5253.42
 31
0.0
  0
LINE
  5
5A7
  8
0
  6
CONTINUOUS
 62
     3
 10
5388.19
 20
5774.36
 30
0.0
 11
5478.38
 21
5566.17
 31
0.0
  0
LINE
  5
5A8
  8
0
  6
CONTINUOUS
 62
     3
 10
5342.88
 20
5771.51
 30
0.0
 11
5455.11
 21
5512.47
 31
0.0
  0
LINE
  5
5A9
  8
0
  6
CONTINUOUS
 62
     3
 10
5317.95
 20
5254.99
 30
0.0
 11
5105.42
 21
5711.67
 31
0.0
  0
LINE
  5
5AA
  8
0
  6
CONTINUOUS
 62
     3
 10
5501.65
 20
5512.47
 30
0.0
 11
5621.47
 21
5235.89
 31
0.0
  0
LINE
  5
5AB
  8
0
  6
CONTINUOUS
 62
     3
 10
5478.38
 20
5458.76
 30
0.0
 11
5573.63
 21
5238.9
 31
0.0
  0
LINE
  5
5AC
  8
0
  6
CONTINUOUS
 62
     3
 10
5198.11
 20
5512.47
 30
0.0
 11
5317.93
 21
5769.94
 31
0.0
  0
LINE
  5
5AD
  8
0
  6
CONTINUOUS
 62
     3
 10
5174.56
 20
5563.07
 30
0.0
 11
5262.67
 21
5752.4
 31
0.0
  0
LINE
  5
5AE
  8
0
  6
CONTINUOUS
 62
     3
 10
5105.41
 20
5313.27
 30
0.0
 11
5174.56
 21
5461.87
 31
0.0
  0
LINE
  5
5AF
  8
0
  6
CONTINUOUS
 62
     3
 10
5069.3
 20
5336.89
 30
0.0
 11
5151.01
 21
5512.47
 31
0.0
  0
LINE
  5
5B0
  8
0
  6
CONTINUOUS
 62
     3
 10
5262.69
 20
5272.53
 30
0.0
 11
5069.31
 21
5688.05
 31
0.0
  0
LINE
  5
5B1
  8
0
  6
CONTINUOUS
 62
     3
 10
8118.36
 20
5946.15
 30
0.0
 11
8373.57
 21
5067.71
 31
0.0
  0
LINE
  5
5B2
  8
0
  6
CONTINUOUS
 62
     3
 10
8074.69
 20
5943.41
 30
0.0
 11
8328.28
 21
5070.56
 31
0.0
  0
LINE
  5
5B3
  8
0
  6
CONTINUOUS
 62
     3
 10
9483.22
 20
11119.4
 30
0.0
 11
9625.43
 21
11397.6
 31
0.0
  0
LINE
  5
5B4
  8
0
  6
CONTINUOUS
 62
     3
 10
10132.1
 20
11164.4
 30
0.0
 11
10252.5
 21
11437.1
 31
0.0
  0
LINE
  5
5B5
  8
0
  6
CONTINUOUS
 62
     3
 10
9817.58
 20
11119.4
 30
0.0
 11
9959.42
 21
10820.1
 31
0.0
  0
LINE
  5
5B6
  8
0
  6
CONTINUOUS
 62
     3
 10
10151.9
 20
11119.4
 30
0.0
 11
10293.4
 21
11439.7
 31
0.0
  0
LINE
  5
5B7
  8
0
  6
CONTINUOUS
 62
     3
 10
10466.6
 20
11071.8
 30
0.0
 11
10587.1
 21
10780.6
 31
0.0
  0
LINE
  5
5B8
  8
0
  6
CONTINUOUS
 62
     3
 10
10486.3
 20
11119.4
 30
0.0
 11
10627.5
 21
10778.0
 31
0.0
  0
LINE
  5
5B9
  8
0
  6
CONTINUOUS
 62
     3
 10
9148.87
 20
11119.4
 30
0.0
 11
9291.53
 21
10862.1
 31
0.0
  0
LINE
  5
5BA
  8
0
  6
CONTINUOUS
 62
     3
 10
9797.44
 20
11076.9
 30
0.0
 11
9917.9
 21
10822.7
 31
0.0
  0
LINE
  5
5BB
  8
0
  6
CONTINUOUS
 62
     3
 10
9462.78
 20
11159.4
 30
0.0
 11
9583.2
 21
11395.0
 31
0.0
  0
LINE
  5
5BC
  8
0
  6
CONTINUOUS
 62
     3
 10
10716.9
 20
10772.4
 30
0.0
 11
10799.9
 21
11058.1
 31
0.0
  0
LINE
  5
5BD
  8
0
  6
CONTINUOUS
 62
     3
 10
10975.7
 20
11482.6
 30
0.0
 11
10975.7
 21
10760.1
 31
0.0
  0
LINE
  5
5BE
  8
0
  6
CONTINUOUS
 62
     3
 10
10941.5
 20
11480.5
 30
0.0
 11
10941.5
 21
10762.3
 31
0.0
  0
LINE
  5
5BF
  8
0
  6
CONTINUOUS
 62
     3
 10
10682.0
 20
11464.1
 30
0.0
 11
10884.9
 21
10765.8
 31
0.0
  0
LINE
  5
5C0
  8
0
  6
CONTINUOUS
 62
     3
 10
10716.9
 20
11466.3
 30
0.0
 11
10921.1
 21
10763.6
 31
0.0
  0
LINE
  5
5C1
  8
0
  6
CONTINUOUS
 62
     3
 10
10682.0
 20
10774.6
 30
0.0
 11
10782.1
 21
11119.4
 31
0.0
  0
LINE
  5
5C2
  8
0
  6
CONTINUOUS
 62
     3
 10
10817.7
 20
11119.4
 30
0.0
 11
10922.3
 21
11479.3
 31
0.0
  0
LINE
  5
5C3
  8
0
  6
CONTINUOUS
 62
     3
 10
10799.9
 20
11180.6
 30
0.0
 11
10886.0
 21
11477.0
 31
0.0
  0
LINE
  5
5C4
  8
0
  6
CONTINUOUS
 62
     3
 10
10293.4
 20
10799.1
 30
0.0
 11
10018.1
 21
11422.4
 31
0.0
  0
LINE
  5
5C5
  8
0
  6
CONTINUOUS
 62
     3
 10
10627.5
 20
11460.7
 30
0.0
 11
10352.3
 21
10795.4
 31
0.0
  0
LINE
  5
5C6
  8
0
  6
CONTINUOUS
 62
     3
 10
10313.9
 20
11441.0
 30
0.0
 11
10446.9
 21
11119.4
 31
0.0
  0
LINE
  5
5C7
  8
0
  6
CONTINUOUS
 62
     3
 10
8458.34
 20
11086.6
 30
0.0
 11
8578.26
 21
10907.0
 31
0.0
  0
LINE
  5
5C8
  8
0
  6
CONTINUOUS
 62
     3
 10
8480.22
 20
11119.4
 30
0.0
 11
8623.95
 21
10904.1
 31
0.0
  0
LINE
  5
5C9
  8
0
  6
CONTINUOUS
 62
     3
 10
8793.25
 20
11154.5
 30
0.0
 11
8913.43
 21
11352.8
 31
0.0
  0
LINE
  5
5CA
  8
0
  6
CONTINUOUS
 62
     3
 10
9128.05
 20
11081.9
 30
0.0
 11
9248.4
 21
10864.8
 31
0.0
  0
LINE
  5
5CB
  8
0
  6
CONTINUOUS
 62
     3
 10
8814.53
 20
11119.4
 30
0.0
 11
8957.68
 21
11355.6
 31
0.0
  0
LINE
  5
5CC
  8
0
  6
CONTINUOUS
 62
     3
 10
10587.1
 20
11458.2
 30
0.0
 11
10313.9
 21
10797.8
 31
0.0
  0
LINE
  5
5CD
  8
0
  6
CONTINUOUS
 62
     3
 10
10352.3
 20
11443.4
 30
0.0
 11
10466.6
 21
11167.0
 31
0.0
  0
LINE
  5
5CE
  8
0
  6
CONTINUOUS
 62
     3
 10
10252.5
 20
10801.6
 30
0.0
 11
9979.39
 21
11419.9
 31
0.0
  0
LINE
  5
5CF
  8
0
  6
CONTINUOUS
 62
     3
 10
9979.39
 20
10818.8
 30
0.0
 11
10112.2
 21
11119.4
 31
0.0
  0
LINE
  5
5D0
  8
0
  6
CONTINUOUS
 62
     3
 10
10018.1
 20
10816.4
 30
0.0
 11
10132.1
 21
11074.3
 31
0.0
  0
LINE
  5
5D1
  8
0
  6
CONTINUOUS
 62
     3
 10
9644.85
 20
11398.9
 30
0.0
 11
9777.3
 21
11119.4
 31
0.0
  0
LINE
  5
5D2
  8
0
  6
CONTINUOUS
 62
     3
 10
9683.96
 20
11401.3
 30
0.0
 11
9797.44
 21
11161.9
 31
0.0
  0
LINE
  5
5D3
  8
0
  6
CONTINUOUS
 62
     3
 10
9917.89
 20
11416.0
 30
0.0
 11
9644.84
 21
10839.9
 31
0.0
  0
LINE
  5
5D4
  8
0
  6
CONTINUOUS
 62
     3
 10
9959.41
 20
11418.7
 30
0.0
 11
9683.95
 21
10837.4
 31
0.0
  0
LINE
  5
5D5
  8
0
  6
CONTINUOUS
 62
     3
 10
9625.44
 20
10841.1
 30
0.0
 11
9349.86
 21
11380.3
 31
0.0
  0
LINE
  5
5D6
  8
0
  6
CONTINUOUS
 62
     3
 10
9583.2
 20
10843.8
 30
0.0
 11
9310.26
 21
11377.8
 31
0.0
  0
LINE
  5
5D7
  8
0
  6
CONTINUOUS
 62
     3
 10
9310.25
 20
10860.9
 30
0.0
 11
9442.34
 21
11119.4
 31
0.0
  0
LINE
  5
5D8
  8
0
  6
CONTINUOUS
 62
     3
 10
9349.86
 20
10858.4
 30
0.0
 11
9462.78
 21
11079.4
 31
0.0
  0
LINE
  5
5D9
  8
0
  6
CONTINUOUS
 62
     3
 10
8975.62
 20
11356.8
 30
0.0
 11
9107.24
 21
11119.4
 31
0.0
  0
LINE
  5
5DA
  8
0
  6
CONTINUOUS
 62
     3
 10
9015.84
 20
11359.3
 30
0.0
 11
9128.05
 21
11156.9
 31
0.0
  0
LINE
  5
5DB
  8
0
  6
CONTINUOUS
 62
     3
 10
9248.38
 20
11373.9
 30
0.0
 11
8975.61
 21
10882.0
 31
0.0
  0
LINE
  5
5DC
  8
0
  6
CONTINUOUS
 62
     3
 10
9291.51
 20
11376.6
 30
0.0
 11
9015.83
 21
10879.5
 31
0.0
  0
LINE
  5
5DD
  8
0
  6
CONTINUOUS
 62
     3
 10
8913.43
 20
10885.9
 30
0.0
 11
8640.9
 21
11335.7
 31
0.0
  0
LINE
  5
5DE
  8
0
  6
CONTINUOUS
 62
     3
 10
8957.68
 20
10883.1
 30
0.0
 11
8681.9
 21
11338.3
 31
0.0
  0
LINE
  5
5DF
  8
0
  6
CONTINUOUS
 62
     3
 10
8681.89
 20
10900.5
 30
0.0
 11
8793.25
 21
11084.3
 31
0.0
  0
LINE
  5
5E0
  8
0
  6
CONTINUOUS
 62
     3
 10
8640.9
 20
10903.1
 30
0.0
 11
8771.97
 21
11119.4
 31
0.0
  0
LINE
  5
5E1
  8
0
  6
CONTINUOUS
 62
     3
 10
8353.25
 20
11309.5
 30
0.0
 11
8458.34
 21
11152.2
 31
0.0
  0
LINE
  5
5E2
  8
0
  6
CONTINUOUS
 62
     3
 10
8322.78
 20
11289.6
 30
0.0
 11
8436.45
 21
11119.4
 31
0.0
  0
LINE
  5
5E3
  8
0
  6
CONTINUOUS
 62
     3
 10
8623.93
 20
11334.6
 30
0.0
 11
8353.25
 21
10929.2
 31
0.0
  0
LINE
  5
5E4
  8
0
  6
CONTINUOUS
 62
     3
 10
8578.24
 20
11331.7
 30
0.0
 11
8322.78
 21
10949.1
 31
0.0
  0
LINE
  5
5E5
  8
0
  6
CONTINUOUS
 62
     3
 10
8447.82
 20
11371.4
 30
0.0
 11
8447.82
 21
11375.4
 31
0.0
  0
LINE
  5
5E6
  8
0
  6
CONTINUOUS
 62
     3
 10
11318.2
 20
10755.4
 30
0.0
 11
11582.6
 21
11483.4
 31
0.0
  0
LINE
  5
5E7
  8
0
  6
CONTINUOUS
 62
     3
 10
11279.5
 20
10755.4
 30
0.0
 11
11543.9
 21
11483.4
 31
0.0
  0
LINE
  5
5E8
  8
0
  6
CONTINUOUS
 62
     3
 10
11249.3
 20
11483.4
 30
0.0
 11
11249.3
 21
10755.4
 31
0.0
  0
LINE
  5
5E9
  8
0
  6
CONTINUOUS
 62
     3
 10
11212.9
 20
11483.4
 30
0.0
 11
11212.9
 21
10755.4
 31
0.0
  0
LINE
  5
5EA
  8
0
  6
CONTINUOUS
 62
     3
 10
11431.0
 20
11172.7
 30
0.0
 11
11318.2
 21
11483.4
 31
0.0
  0
LINE
  5
5EB
  8
0
  6
CONTINUOUS
 62
     3
 10
11411.7
 20
11119.4
 30
0.0
 11
11279.5
 21
11483.4
 31
0.0
  0
LINE
  5
5EC
  8
0
  6
CONTINUOUS
 62
     3
 10
11582.6
 20
10755.4
 30
0.0
 11
11450.4
 21
11119.4
 31
0.0
  0
LINE
  5
5ED
  8
0
  6
CONTINUOUS
 62
     3
 10
11543.9
 20
10755.4
 30
0.0
 11
11431.0
 21
11066.1
 31
0.0
  0
LINE
  5
5EE
  8
0
  6
CONTINUOUS
 62
     3
 10
15968.1
 20
10755.4
 30
0.0
 11
15968.1
 21
11483.4
 31
0.0
  0
LINE
  5
5EF
  8
0
  6
CONTINUOUS
 62
     3
 10
15931.8
 20
10755.4
 30
0.0
 11
15931.8
 21
11483.4
 31
0.0
  0
LINE
  5
5F0
  8
0
  6
CONTINUOUS
 62
     3
 10
15901.8
 20
10755.4
 30
0.0
 11
15646.0
 21
11483.4
 31
0.0
  0
LINE
  5
5F1
  8
0
  6
CONTINUOUS
 62
     3
 10
15863.2
 20
10755.4
 30
0.0
 11
15607.4
 21
11483.4
 31
0.0
  0
LINE
  5
5F2
  8
0
  6
CONTINUOUS
 62
     3
 10
15901.5
 20
11483.4
 30
0.0
 11
15769.3
 21
11119.4
 31
0.0
  0
LINE
  5
5F3
  8
0
  6
CONTINUOUS
 62
     3
 10
15754.6
 20
11174.2
 30
0.0
 11
15863.2
 21
11483.4
 31
0.0
  0
LINE
  5
5F4
  8
0
  6
CONTINUOUS
 62
     3
 10
15607.4
 20
10755.4
 30
0.0
 11
15735.3
 21
11119.4
 31
0.0
  0
LINE
  5
5F5
  8
0
  6
CONTINUOUS
 62
     3
 10
15646.0
 20
10755.4
 30
0.0
 11
15754.6
 21
11064.5
 31
0.0
  0
LINE
  5
5F6
  8
0
  6
CONTINUOUS
 62
     3
 10
12400.5
 20
11170.5
 30
0.0
 11
12519.7
 21
11483.4
 31
0.0
  0
LINE
  5
5F7
  8
0
  6
CONTINUOUS
 62
     3
 10
12420.0
 20
11119.4
 30
0.0
 11
12558.7
 21
11483.4
 31
0.0
  0
LINE
  5
5F8
  8
0
  6
CONTINUOUS
 62
     3
 10
15579.8
 20
10755.4
 30
0.0
 11
15460.5
 21
11068.3
 31
0.0
  0
LINE
  5
5F9
  8
0
  6
CONTINUOUS
 62
     3
 10
11878.7
 20
11483.4
 30
0.0
 11
11739.9
 21
11119.4
 31
0.0
  0
LINE
  5
5FA
  8
0
  6
CONTINUOUS
 62
     3
 10
11839.7
 20
11483.4
 30
0.0
 11
11720.5
 21
11170.5
 31
0.0
  0
LINE
  5
5FB
  8
0
  6
CONTINUOUS
 62
     3
 10
15618.7
 20
10755.4
 30
0.0
 11
15480.0
 21
11119.4
 31
0.0
  0
LINE
  5
5FC
  8
0
  6
CONTINUOUS
 62
     3
 10
15341.2
 20
10755.4
 30
0.0
 11
15618.7
 21
11483.4
 31
0.0
  0
LINE
  5
5FD
  8
0
  6
CONTINUOUS
 62
     3
 10
15302.3
 20
10755.4
 30
0.0
 11
15579.8
 21
11483.4
 31
0.0
  0
LINE
  5
5FE
  8
0
  6
CONTINUOUS
 62
     3
 10
15120.5
 20
11170.5
 30
0.0
 11
15239.8
 21
11483.4
 31
0.0
  0
LINE
  5
5FF
  8
0
  6
CONTINUOUS
 62
     3
 10
15140.0
 20
11119.4
 30
0.0
 11
15278.7
 21
11483.4
 31
0.0
  0
LINE
  5
600
  8
0
  6
CONTINUOUS
 62
     3
 10
14962.3
 20
10755.4
 30
0.0
 11
15101.0
 21
11119.4
 31
0.0
  0
LINE
  5
601
  8
0
  6
CONTINUOUS
 62
     3
 10
15001.2
 20
10755.4
 30
0.0
 11
15120.5
 21
11068.3
 31
0.0
  0
LINE
  5
602
  8
0
  6
CONTINUOUS
 62
     3
 10
14899.8
 20
10755.4
 30
0.0
 11
14780.5
 21
11068.3
 31
0.0
  0
LINE
  5
603
  8
0
  6
CONTINUOUS
 62
     3
 10
14938.7
 20
10755.4
 30
0.0
 11
14800.0
 21
11119.4
 31
0.0
  0
LINE
  5
604
  8
0
  6
CONTINUOUS
 62
     3
 10
14622.3
 20
10755.4
 30
0.0
 11
14899.8
 21
11483.4
 31
0.0
  0
LINE
  5
605
  8
0
  6
CONTINUOUS
 62
     3
 10
14661.2
 20
10755.4
 30
0.0
 11
14938.7
 21
11483.4
 31
0.0
  0
LINE
  5
606
  8
0
  6
CONTINUOUS
 62
     3
 10
14282.3
 20
10755.4
 30
0.0
 11
14421.0
 21
11119.4
 31
0.0
  0
LINE
  5
607
  8
0
  6
CONTINUOUS
 62
     3
 10
14321.2
 20
10755.4
 30
0.0
 11
14440.5
 21
11068.3
 31
0.0
  0
LINE
  5
608
  8
0
  6
CONTINUOUS
 62
     3
 10
14258.7
 20
10755.4
 30
0.0
 11
14120.0
 21
11119.4
 31
0.0
  0
LINE
  5
609
  8
0
  6
CONTINUOUS
 62
     3
 10
14219.8
 20
10755.4
 30
0.0
 11
14100.5
 21
11068.3
 31
0.0
  0
LINE
  5
60A
  8
0
  6
CONTINUOUS
 62
     3
 10
13981.2
 20
10755.4
 30
0.0
 11
14258.7
 21
11483.4
 31
0.0
  0
LINE
  5
60B
  8
0
  6
CONTINUOUS
 62
     3
 10
13942.3
 20
10755.4
 30
0.0
 11
14219.8
 21
11483.4
 31
0.0
  0
LINE
  5
60C
  8
0
  6
CONTINUOUS
 62
     3
 10
14440.5
 20
11170.5
 30
0.0
 11
14559.8
 21
11483.4
 31
0.0
  0
LINE
  5
60D
  8
0
  6
CONTINUOUS
 62
     3
 10
14460.0
 20
11119.4
 30
0.0
 11
14598.7
 21
11483.4
 31
0.0
  0
LINE
  5
60E
  8
0
  6
CONTINUOUS
 62
     3
 10
13641.2
 20
10755.4
 30
0.0
 11
13760.5
 21
11068.3
 31
0.0
  0
LINE
  5
60F
  8
0
  6
CONTINUOUS
 62
     3
 10
13602.3
 20
10755.4
 30
0.0
 11
13741.0
 21
11119.4
 31
0.0
  0
LINE
  5
610
  8
0
  6
CONTINUOUS
 62
     3
 10
13578.7
 20
10755.4
 30
0.0
 11
13440.0
 21
11119.4
 31
0.0
  0
LINE
  5
611
  8
0
  6
CONTINUOUS
 62
     3
 10
13539.8
 20
10755.4
 30
0.0
 11
13420.5
 21
11068.3
 31
0.0
  0
LINE
  5
612
  8
0
  6
CONTINUOUS
 62
     3
 10
13262.2
 20
10755.4
 30
0.0
 11
13539.8
 21
11483.4
 31
0.0
  0
LINE
  5
613
  8
0
  6
CONTINUOUS
 62
     3
 10
13301.2
 20
10755.4
 30
0.0
 11
13578.7
 21
11483.4
 31
0.0
  0
LINE
  5
614
  8
0
  6
CONTINUOUS
 62
     3
 10
13780.0
 20
11119.4
 30
0.0
 11
13918.7
 21
11483.4
 31
0.0
  0
LINE
  5
615
  8
0
  6
CONTINUOUS
 62
     3
 10
13760.5
 20
11170.5
 30
0.0
 11
13879.8
 21
11483.4
 31
0.0
  0
LINE
  5
616
  8
0
  6
CONTINUOUS
 62
     3
 10
12922.2
 20
10755.4
 30
0.0
 11
13061.0
 21
11119.4
 31
0.0
  0
LINE
  5
617
  8
0
  6
CONTINUOUS
 62
     3
 10
12961.2
 20
10755.4
 30
0.0
 11
13080.5
 21
11068.3
 31
0.0
  0
LINE
  5
618
  8
0
  6
CONTINUOUS
 62
     3
 10
12859.7
 20
10755.4
 30
0.0
 11
12740.5
 21
11068.3
 31
0.0
  0
LINE
  5
619
  8
0
  6
CONTINUOUS
 62
     3
 10
12898.7
 20
10755.4
 30
0.0
 11
12760.0
 21
11119.4
 31
0.0
  0
LINE
  5
61A
  8
0
  6
CONTINUOUS
 62
     3
 10
12582.2
 20
10755.4
 30
0.0
 11
12859.7
 21
11483.4
 31
0.0
  0
LINE
  5
61B
  8
0
  6
CONTINUOUS
 62
     3
 10
12621.2
 20
10755.4
 30
0.0
 11
12898.7
 21
11483.4
 31
0.0
  0
LINE
  5
61C
  8
0
  6
CONTINUOUS
 62
     3
 10
13100.0
 20
11119.4
 30
0.0
 11
13238.7
 21
11483.4
 31
0.0
  0
LINE
  5
61D
  8
0
  6
CONTINUOUS
 62
     3
 10
13080.5
 20
11170.5
 30
0.0
 11
13199.7
 21
11483.4
 31
0.0
  0
LINE
  5
61E
  8
0
  6
CONTINUOUS
 62
     3
 10
12281.2
 20
10755.4
 30
0.0
 11
12400.5
 21
11068.3
 31
0.0
  0
LINE
  5
61F
  8
0
  6
CONTINUOUS
 62
     3
 10
12242.2
 20
10755.4
 30
0.0
 11
12381.0
 21
11119.4
 31
0.0
  0
LINE
  5
620
  8
0
  6
CONTINUOUS
 62
     3
 10
12218.7
 20
10755.4
 30
0.0
 11
12079.9
 21
11119.4
 31
0.0
  0
LINE
  5
621
  8
0
  6
CONTINUOUS
 62
     3
 10
12179.7
 20
10755.4
 30
0.0
 11
12060.5
 21
11068.3
 31
0.0
  0
LINE
  5
622
  8
0
  6
CONTINUOUS
 62
     3
 10
11902.2
 20
10755.4
 30
0.0
 11
12179.7
 21
11483.4
 31
0.0
  0
LINE
  5
623
  8
0
  6
CONTINUOUS
 62
     3
 10
11941.2
 20
10755.4
 30
0.0
 11
12218.7
 21
11483.4
 31
0.0
  0
LINE
  5
624
  8
0
  6
CONTINUOUS
 62
     3
 10
11601.2
 20
11483.4
 30
0.0
 11
11878.7
 21
10755.4
 31
0.0
  0
LINE
  5
625
  8
0
  6
CONTINUOUS
 62
     3
 10
11562.2
 20
11483.4
 30
0.0
 11
11839.7
 21
10755.4
 31
0.0
  0
LINE
  5
626
  8
0
  6
CONTINUOUS
 62
     3
 10
15460.5
 20
11170.5
 30
0.0
 11
15341.2
 21
11483.4
 31
0.0
  0
LINE
  5
627
  8
0
  6
CONTINUOUS
 62
     3
 10
15441.0
 20
11119.4
 30
0.0
 11
15302.3
 21
11483.4
 31
0.0
  0
LINE
  5
628
  8
0
  6
CONTINUOUS
 62
     3
 10
15278.7
 20
10755.4
 30
0.0
 11
15001.2
 21
11483.4
 31
0.0
  0
LINE
  5
629
  8
0
  6
CONTINUOUS
 62
     3
 10
15239.8
 20
10755.4
 30
0.0
 11
14962.3
 21
11483.4
 31
0.0
  0
LINE
  5
62A
  8
0
  6
CONTINUOUS
 62
     3
 10
14780.5
 20
11170.5
 30
0.0
 11
14661.2
 21
11483.4
 31
0.0
  0
LINE
  5
62B
  8
0
  6
CONTINUOUS
 62
     3
 10
14761.0
 20
11119.4
 30
0.0
 11
14622.3
 21
11483.4
 31
0.0
  0
LINE
  5
62C
  8
0
  6
CONTINUOUS
 62
     3
 10
14598.7
 20
10755.4
 30
0.0
 11
14321.2
 21
11483.4
 31
0.0
  0
LINE
  5
62D
  8
0
  6
CONTINUOUS
 62
     3
 10
14559.8
 20
10755.4
 30
0.0
 11
14282.3
 21
11483.4
 31
0.0
  0
LINE
  5
62E
  8
0
  6
CONTINUOUS
 62
     3
 10
14100.5
 20
11170.5
 30
0.0
 11
13981.2
 21
11483.4
 31
0.0
  0
LINE
  5
62F
  8
0
  6
CONTINUOUS
 62
     3
 10
14081.0
 20
11119.4
 30
0.0
 11
13942.3
 21
11483.4
 31
0.0
  0
LINE
  5
630
  8
0
  6
CONTINUOUS
 62
     3
 10
13918.7
 20
10755.4
 30
0.0
 11
13641.2
 21
11483.4
 31
0.0
  0
LINE
  5
631
  8
0
  6
CONTINUOUS
 62
     3
 10
13879.8
 20
10755.4
 30
0.0
 11
13602.3
 21
11483.4
 31
0.0
  0
LINE
  5
632
  8
0
  6
CONTINUOUS
 62
     3
 10
13420.5
 20
11170.5
 30
0.0
 11
13301.2
 21
11483.4
 31
0.0
  0
LINE
  5
633
  8
0
  6
CONTINUOUS
 62
     3
 10
13401.0
 20
11119.4
 30
0.0
 11
13262.3
 21
11483.4
 31
0.0
  0
LINE
  5
634
  8
0
  6
CONTINUOUS
 62
     3
 10
13238.7
 20
10755.4
 30
0.0
 11
12961.2
 21
11483.4
 31
0.0
  0
LINE
  5
635
  8
0
  6
CONTINUOUS
 62
     3
 10
13199.8
 20
10755.4
 30
0.0
 11
12922.3
 21
11483.4
 31
0.0
  0
LINE
  5
636
  8
0
  6
CONTINUOUS
 62
     3
 10
12740.5
 20
11170.5
 30
0.0
 11
12621.2
 21
11483.4
 31
0.0
  0
LINE
  5
637
  8
0
  6
CONTINUOUS
 62
     3
 10
12721.0
 20
11119.4
 30
0.0
 11
12582.2
 21
11483.4
 31
0.0
  0
LINE
  5
638
  8
0
  6
CONTINUOUS
 62
     3
 10
12558.7
 20
10755.4
 30
0.0
 11
12281.2
 21
11483.4
 31
0.0
  0
LINE
  5
639
  8
0
  6
CONTINUOUS
 62
     3
 10
12519.7
 20
10755.4
 30
0.0
 11
12242.2
 21
11483.4
 31
0.0
  0
LINE
  5
63A
  8
0
  6
CONTINUOUS
 62
     3
 10
12060.5
 20
11170.5
 30
0.0
 11
11941.2
 21
11483.4
 31
0.0
  0
LINE
  5
63B
  8
0
  6
CONTINUOUS
 62
     3
 10
12041.0
 20
11119.4
 30
0.0
 11
11902.2
 21
11483.4
 31
0.0
  0
LINE
  5
63C
  8
0
  6
CONTINUOUS
 62
     3
 10
11720.5
 20
11068.3
 30
0.0
 11
11601.2
 21
10755.4
 31
0.0
  0
LINE
  5
63D
  8
0
  6
CONTINUOUS
 62
     3
 10
11701.0
 20
11119.4
 30
0.0
 11
11562.2
 21
10755.4
 31
0.0
  0
LINE
  5
63E
  8
0
  6
CONTINUOUS
 62
     3
 10
16318.2
 20
10755.4
 30
0.0
 11
16582.6
 21
11483.4
 31
0.0
  0
LINE
  5
63F
  8
0
  6
CONTINUOUS
 62
     3
 10
16279.5
 20
10755.4
 30
0.0
 11
16543.9
 21
11483.4
 31
0.0
  0
LINE
  5
640
  8
0
  6
CONTINUOUS
 62
     3
 10
16249.3
 20
11483.4
 30
0.0
 11
16249.3
 21
10755.4
 31
0.0
  0
LINE
  5
641
  8
0
  6
CONTINUOUS
 62
     3
 10
16212.9
 20
11483.4
 30
0.0
 11
16212.9
 21
10755.4
 31
0.0
  0
LINE
  5
642
  8
0
  6
CONTINUOUS
 62
     3
 10
16431.1
 20
11172.7
 30
0.0
 11
16318.2
 21
11483.4
 31
0.0
  0
LINE
  5
643
  8
0
  6
CONTINUOUS
 62
     3
 10
16411.7
 20
11119.4
 30
0.0
 11
16279.5
 21
11483.4
 31
0.0
  0
LINE
  5
644
  8
0
  6
CONTINUOUS
 62
     3
 10
16582.6
 20
10755.4
 30
0.0
 11
16450.4
 21
11119.4
 31
0.0
  0
LINE
  5
645
  8
0
  6
CONTINUOUS
 62
     3
 10
16543.9
 20
10755.4
 30
0.0
 11
16431.0
 21
11066.1
 31
0.0
  0
LINE
  5
646
  8
0
  6
CONTINUOUS
 62
     3
 10
20968.1
 20
10755.4
 30
0.0
 11
20968.1
 21
11483.4
 31
0.0
  0
LINE
  5
647
  8
0
  6
CONTINUOUS
 62
     3
 10
20931.8
 20
10755.4
 30
0.0
 11
20931.8
 21
11483.4
 31
0.0
  0
LINE
  5
648
  8
0
  6
CONTINUOUS
 62
     3
 10
20901.7
 20
10755.4
 30
0.0
 11
20646.0
 21
11483.4
 31
0.0
  0
LINE
  5
649
  8
0
  6
CONTINUOUS
 62
     3
 10
20863.2
 20
10755.4
 30
0.0
 11
20607.4
 21
11483.4
 31
0.0
  0
LINE
  5
64A
  8
0
  6
CONTINUOUS
 62
     3
 10
20901.5
 20
11483.4
 30
0.0
 11
20769.3
 21
11119.4
 31
0.0
  0
LINE
  5
64B
  8
0
  6
CONTINUOUS
 62
     3
 10
20754.6
 20
11174.2
 30
0.0
 11
20863.2
 21
11483.4
 31
0.0
  0
LINE
  5
64C
  8
0
  6
CONTINUOUS
 62
     3
 10
20607.4
 20
10755.4
 30
0.0
 11
20735.3
 21
11119.4
 31
0.0
  0
LINE
  5
64D
  8
0
  6
CONTINUOUS
 62
     3
 10
20646.0
 20
10755.4
 30
0.0
 11
20754.6
 21
11064.5
 31
0.0
  0
LINE
  5
64E
  8
0
  6
CONTINUOUS
 62
     3
 10
17400.5
 20
11170.5
 30
0.0
 11
17519.7
 21
11483.4
 31
0.0
  0
LINE
  5
64F
  8
0
  6
CONTINUOUS
 62
     3
 10
17419.9
 20
11119.4
 30
0.0
 11
17558.7
 21
11483.4
 31
0.0
  0
LINE
  5
650
  8
0
  6
CONTINUOUS
 62
     3
 10
20579.8
 20
10755.4
 30
0.0
 11
20460.5
 21
11068.3
 31
0.0
  0
LINE
  5
651
  8
0
  6
CONTINUOUS
 62
     3
 10
16878.7
 20
11483.4
 30
0.0
 11
16739.9
 21
11119.4
 31
0.0
  0
LINE
  5
652
  8
0
  6
CONTINUOUS
 62
     3
 10
16839.7
 20
11483.4
 30
0.0
 11
16720.5
 21
11170.5
 31
0.0
  0
LINE
  5
653
  8
0
  6
CONTINUOUS
 62
     3
 10
20618.7
 20
10755.4
 30
0.0
 11
20480.0
 21
11119.4
 31
0.0
  0
LINE
  5
654
  8
0
  6
CONTINUOUS
 62
     3
 10
20341.2
 20
10755.4
 30
0.0
 11
20618.7
 21
11483.4
 31
0.0
  0
LINE
  5
655
  8
0
  6
CONTINUOUS
 62
     3
 10
20302.3
 20
10755.4
 30
0.0
 11
20579.8
 21
11483.4
 31
0.0
  0
LINE
  5
656
  8
0
  6
CONTINUOUS
 62
     3
 10
20120.5
 20
11170.5
 30
0.0
 11
20239.8
 21
11483.4
 31
0.0
  0
LINE
  5
657
  8
0
  6
CONTINUOUS
 62
     3
 10
20140.0
 20
11119.4
 30
0.0
 11
20278.7
 21
11483.4
 31
0.0
  0
LINE
  5
658
  8
0
  6
CONTINUOUS
 62
     3
 10
19962.3
 20
10755.4
 30
0.0
 11
20101.0
 21
11119.4
 31
0.0
  0
LINE
  5
659
  8
0
  6
CONTINUOUS
 62
     3
 10
20001.2
 20
10755.4
 30
0.0
 11
20120.5
 21
11068.3
 31
0.0
  0
LINE
  5
65A
  8
0
  6
CONTINUOUS
 62
     3
 10
19899.8
 20
10755.4
 30
0.0
 11
19780.5
 21
11068.3
 31
0.0
  0
LINE
  5
65B
  8
0
  6
CONTINUOUS
 62
     3
 10
19938.7
 20
10755.4
 30
0.0
 11
19800.0
 21
11119.4
 31
0.0
  0
LINE
  5
65C
  8
0
  6
CONTINUOUS
 62
     3
 10
19622.3
 20
10755.4
 30
0.0
 11
19899.8
 21
11483.4
 31
0.0
  0
LINE
  5
65D
  8
0
  6
CONTINUOUS
 62
     3
 10
19661.2
 20
10755.4
 30
0.0
 11
19938.7
 21
11483.4
 31
0.0
  0
LINE
  5
65E
  8
0
  6
CONTINUOUS
 62
     3
 10
19282.3
 20
10755.4
 30
0.0
 11
19421.0
 21
11119.4
 31
0.0
  0
LINE
  5
65F
  8
0
  6
CONTINUOUS
 62
     3
 10
19321.2
 20
10755.4
 30
0.0
 11
19440.5
 21
11068.3
 31
0.0
  0
LINE
  5
660
  8
0
  6
CONTINUOUS
 62
     3
 10
19258.7
 20
10755.4
 30
0.0
 11
19120.0
 21
11119.4
 31
0.0
  0
LINE
  5
661
  8
0
  6
CONTINUOUS
 62
     3
 10
19219.8
 20
10755.4
 30
0.0
 11
19100.5
 21
11068.3
 31
0.0
  0
LINE
  5
662
  8
0
  6
CONTINUOUS
 62
     3
 10
18981.2
 20
10755.4
 30
0.0
 11
19258.7
 21
11483.4
 31
0.0
  0
LINE
  5
663
  8
0
  6
CONTINUOUS
 62
     3
 10
18942.3
 20
10755.4
 30
0.0
 11
19219.8
 21
11483.4
 31
0.0
  0
LINE
  5
664
  8
0
  6
CONTINUOUS
 62
     3
 10
19440.5
 20
11170.5
 30
0.0
 11
19559.8
 21
11483.4
 31
0.0
  0
LINE
  5
665
  8
0
  6
CONTINUOUS
 62
     3
 10
19460.0
 20
11119.4
 30
0.0
 11
19598.7
 21
11483.4
 31
0.0
  0
LINE
  5
666
  8
0
  6
CONTINUOUS
 62
     3
 10
18641.2
 20
10755.4
 30
0.0
 11
18760.5
 21
11068.3
 31
0.0
  0
LINE
  5
667
  8
0
  6
CONTINUOUS
 62
     3
 10
18602.3
 20
10755.4
 30
0.0
 11
18741.0
 21
11119.4
 31
0.0
  0
LINE
  5
668
  8
0
  6
CONTINUOUS
 62
     3
 10
18578.7
 20
10755.4
 30
0.0
 11
18440.0
 21
11119.4
 31
0.0
  0
LINE
  5
669
  8
0
  6
CONTINUOUS
 62
     3
 10
18539.8
 20
10755.4
 30
0.0
 11
18420.5
 21
11068.3
 31
0.0
  0
LINE
  5
66A
  8
0
  6
CONTINUOUS
 62
     3
 10
18262.2
 20
10755.4
 30
0.0
 11
18539.8
 21
11483.4
 31
0.0
  0
LINE
  5
66B
  8
0
  6
CONTINUOUS
 62
     3
 10
18301.2
 20
10755.4
 30
0.0
 11
18578.7
 21
11483.4
 31
0.0
  0
LINE
  5
66C
  8
0
  6
CONTINUOUS
 62
     3
 10
18780.0
 20
11119.4
 30
0.0
 11
18918.7
 21
11483.4
 31
0.0
  0
LINE
  5
66D
  8
0
  6
CONTINUOUS
 62
     3
 10
18760.5
 20
11170.5
 30
0.0
 11
18879.8
 21
11483.4
 31
0.0
  0
LINE
  5
66E
  8
0
  6
CONTINUOUS
 62
     3
 10
17922.2
 20
10755.4
 30
0.0
 11
18061.0
 21
11119.4
 31
0.0
  0
LINE
  5
66F
  8
0
  6
CONTINUOUS
 62
     3
 10
17961.2
 20
10755.4
 30
0.0
 11
18080.5
 21
11068.3
 31
0.0
  0
LINE
  5
670
  8
0
  6
CONTINUOUS
 62
     3
 10
17859.7
 20
10755.4
 30
0.0
 11
17740.5
 21
11068.3
 31
0.0
  0
LINE
  5
671
  8
0
  6
CONTINUOUS
 62
     3
 10
17898.7
 20
10755.4
 30
0.0
 11
17760.0
 21
11119.4
 31
0.0
  0
LINE
  5
672
  8
0
  6
CONTINUOUS
 62
     3
 10
17582.2
 20
10755.4
 30
0.0
 11
17859.7
 21
11483.4
 31
0.0
  0
LINE
  5
673
  8
0
  6
CONTINUOUS
 62
     3
 10
17621.2
 20
10755.4
 30
0.0
 11
17898.7
 21
11483.4
 31
0.0
  0
LINE
  5
674
  8
0
  6
CONTINUOUS
 62
     3
 10
18100.0
 20
11119.4
 30
0.0
 11
18238.7
 21
11483.4
 31
0.0
  0
LINE
  5
675
  8
0
  6
CONTINUOUS
 62
     3
 10
18080.5
 20
11170.5
 30
0.0
 11
18199.7
 21
11483.4
 31
0.0
  0
LINE
  5
676
  8
0
  6
CONTINUOUS
 62
     3
 10
17281.2
 20
10755.4
 30
0.0
 11
17400.5
 21
11068.3
 31
0.0
  0
LINE
  5
677
  8
0
  6
CONTINUOUS
 62
     3
 10
17242.2
 20
10755.4
 30
0.0
 11
17381.0
 21
11119.4
 31
0.0
  0
LINE
  5
678
  8
0
  6
CONTINUOUS
 62
     3
 10
17218.7
 20
10755.4
 30
0.0
 11
17079.9
 21
11119.4
 31
0.0
  0
LINE
  5
679
  8
0
  6
CONTINUOUS
 62
     3
 10
17179.7
 20
10755.4
 30
0.0
 11
17060.5
 21
11068.3
 31
0.0
  0
LINE
  5
67A
  8
0
  6
CONTINUOUS
 62
     3
 10
16902.2
 20
10755.4
 30
0.0
 11
17179.7
 21
11483.4
 31
0.0
  0
LINE
  5
67B
  8
0
  6
CONTINUOUS
 62
     3
 10
16941.2
 20
10755.4
 30
0.0
 11
17218.7
 21
11483.4
 31
0.0
  0
LINE
  5
67C
  8
0
  6
CONTINUOUS
 62
     3
 10
16601.2
 20
11483.4
 30
0.0
 11
16878.7
 21
10755.4
 31
0.0
  0
LINE
  5
67D
  8
0
  6
CONTINUOUS
 62
     3
 10
16562.2
 20
11483.4
 30
0.0
 11
16839.7
 21
10755.4
 31
0.0
  0
LINE
  5
67E
  8
0
  6
CONTINUOUS
 62
     3
 10
20460.5
 20
11170.5
 30
0.0
 11
20341.2
 21
11483.4
 31
0.0
  0
LINE
  5
67F
  8
0
  6
CONTINUOUS
 62
     3
 10
20441.0
 20
11119.4
 30
0.0
 11
20302.3
 21
11483.4
 31
0.0
  0
LINE
  5
680
  8
0
  6
CONTINUOUS
 62
     3
 10
20278.7
 20
10755.4
 30
0.0
 11
20001.2
 21
11483.4
 31
0.0
  0
LINE
  5
681
  8
0
  6
CONTINUOUS
 62
     3
 10
20239.8
 20
10755.4
 30
0.0
 11
19962.3
 21
11483.4
 31
0.0
  0
LINE
  5
682
  8
0
  6
CONTINUOUS
 62
     3
 10
19780.5
 20
11170.5
 30
0.0
 11
19661.2
 21
11483.4
 31
0.0
  0
LINE
  5
683
  8
0
  6
CONTINUOUS
 62
     3
 10
19761.0
 20
11119.4
 30
0.0
 11
19622.3
 21
11483.4
 31
0.0
  0
LINE
  5
684
  8
0
  6
CONTINUOUS
 62
     3
 10
19598.7
 20
10755.4
 30
0.0
 11
19321.2
 21
11483.4
 31
0.0
  0
LINE
  5
685
  8
0
  6
CONTINUOUS
 62
     3
 10
19559.8
 20
10755.4
 30
0.0
 11
19282.3
 21
11483.4
 31
0.0
  0
LINE
  5
686
  8
0
  6
CONTINUOUS
 62
     3
 10
19100.5
 20
11170.5
 30
0.0
 11
18981.2
 21
11483.4
 31
0.0
  0
LINE
  5
687
  8
0
  6
CONTINUOUS
 62
     3
 10
19081.0
 20
11119.4
 30
0.0
 11
18942.3
 21
11483.4
 31
0.0
  0
LINE
  5
688
  8
0
  6
CONTINUOUS
 62
     3
 10
18918.7
 20
10755.4
 30
0.0
 11
18641.2
 21
11483.4
 31
0.0
  0
LINE
  5
689
  8
0
  6
CONTINUOUS
 62
     3
 10
18879.8
 20
10755.4
 30
0.0
 11
18602.3
 21
11483.4
 31
0.0
  0
LINE
  5
68A
  8
0
  6
CONTINUOUS
 62
     3
 10
18420.5
 20
11170.5
 30
0.0
 11
18301.2
 21
11483.4
 31
0.0
  0
LINE
  5
68B
  8
0
  6
CONTINUOUS
 62
     3
 10
18401.0
 20
11119.4
 30
0.0
 11
18262.3
 21
11483.4
 31
0.0
  0
LINE
  5
68C
  8
0
  6
CONTINUOUS
 62
     3
 10
18238.7
 20
10755.4
 30
0.0
 11
17961.2
 21
11483.4
 31
0.0
  0
LINE
  5
68D
  8
0
  6
CONTINUOUS
 62
     3
 10
18199.8
 20
10755.4
 30
0.0
 11
17922.3
 21
11483.4
 31
0.0
  0
LINE
  5
68E
  8
0
  6
CONTINUOUS
 62
     3
 10
17740.5
 20
11170.5
 30
0.0
 11
17621.2
 21
11483.4
 31
0.0
  0
LINE
  5
68F
  8
0
  6
CONTINUOUS
 62
     3
 10
17721.0
 20
11119.4
 30
0.0
 11
17582.2
 21
11483.4
 31
0.0
  0
LINE
  5
690
  8
0
  6
CONTINUOUS
 62
     3
 10
17558.7
 20
10755.4
 30
0.0
 11
17281.2
 21
11483.4
 31
0.0
  0
LINE
  5
691
  8
0
  6
CONTINUOUS
 62
     3
 10
17519.7
 20
10755.4
 30
0.0
 11
17242.2
 21
11483.4
 31
0.0
  0
LINE
  5
692
  8
0
  6
CONTINUOUS
 62
     3
 10
17060.5
 20
11170.5
 30
0.0
 11
16941.2
 21
11483.4
 31
0.0
  0
LINE
  5
693
  8
0
  6
CONTINUOUS
 62
     3
 10
17041.0
 20
11119.4
 30
0.0
 11
16902.2
 21
11483.4
 31
0.0
  0
LINE
  5
694
  8
0
  6
CONTINUOUS
 62
     3
 10
16720.5
 20
11068.3
 30
0.0
 11
16601.2
 21
10755.4
 31
0.0
  0
LINE
  5
695
  8
0
  6
CONTINUOUS
 62
     3
 10
16701.0
 20
11119.4
 30
0.0
 11
16562.2
 21
10755.4
 31
0.0
  0
LINE
  5
696
  8
0
  6
CONTINUOUS
 62
     3
 10
22133.5
 20
10835.4
 30
0.0
 11
22023.5
 21
11085.6
 31
0.0
  0
LINE
  5
697
  8
0
  6
CONTINUOUS
 62
     3
 10
21904.9
 20
10815.9
 30
0.0
 11
22162.2
 21
11400.9
 31
0.0
  0
LINE
  5
698
  8
0
  6
CONTINUOUS
 62
     3
 10
21874.0
 20
10813.3
 30
0.0
 11
22133.5
 21
11403.4
 31
0.0
  0
LINE
  5
699
  8
0
  6
CONTINUOUS
 62
     3
 10
21548.8
 20
11453.1
 30
0.0
 11
21811.0
 21
10807.9
 31
0.0
  0
LINE
  5
69A
  8
0
  6
CONTINUOUS
 62
     3
 10
21477.9
 20
10777.2
 30
0.0
 11
21389.2
 21
11062.0
 31
0.0
  0
LINE
  5
69B
  8
0
  6
CONTINUOUS
 62
     3
 10
21512.8
 20
10779.9
 30
0.0
 11
21407.1
 21
11119.4
 31
0.0
  0
LINE
  5
69C
  8
0
  6
CONTINUOUS
 62
     3
 10
21205.4
 20
11482.4
 30
0.0
 11
21205.4
 21
10756.3
 31
0.0
  0
LINE
  5
69D
  8
0
  6
CONTINUOUS
 62
     3
 10
21239.5
 20
11479.8
 30
0.0
 11
21239.5
 21
10758.9
 31
0.0
  0
LINE
  5
69E
  8
0
  6
CONTINUOUS
 62
     3
 10
21477.9
 20
11461.5
 30
0.0
 11
21259.5
 21
10760.5
 31
0.0
  0
LINE
  5
69F
  8
0
  6
CONTINUOUS
 62
     3
 10
21512.8
 20
11458.8
 30
0.0
 11
21296.1
 21
10763.3
 31
0.0
  0
LINE
  5
6A0
  8
0
  6
CONTINUOUS
 62
     3
 10
21371.3
 20
11119.4
 30
0.0
 11
21259.5
 21
11478.3
 31
0.0
  0
LINE
  5
6A1
  8
0
  6
CONTINUOUS
 62
     3
 10
21389.2
 20
11176.8
 30
0.0
 11
21296.2
 21
11475.5
 31
0.0
  0
LINE
  5
6A2
  8
0
  6
CONTINUOUS
 62
     3
 10
21579.2
 20
11450.5
 30
0.0
 11
21839.3
 21
10810.4
 31
0.0
  0
LINE
  5
6A3
  8
0
  6
CONTINUOUS
 62
     3
 10
21839.3
 20
11428.4
 30
0.0
 11
21713.8
 21
11119.4
 31
0.0
  0
LINE
  5
6A4
  8
0
  6
CONTINUOUS
 62
     3
 10
21811.0
 20
11430.8
 30
0.0
 11
21699.1
 21
11155.5
 31
0.0
  0
LINE
  5
6A5
  8
0
  6
CONTINUOUS
 62
     3
 10
23505.5
 20
11286.6
 30
0.0
 11
23739.8
 21
10972.1
 31
0.0
  0
LINE
  5
6A6
  8
0
  6
CONTINUOUS
 62
     3
 10
23322.0
 20
11144.2
 30
0.0
 11
23212.4
 21
11311.6
 31
0.0
  0
LINE
  5
6A7
  8
0
  6
CONTINUOUS
 62
     3
 10
22557.4
 20
10871.4
 30
0.0
 11
22807.1
 21
11346.1
 31
0.0
  0
LINE
  5
6A8
  8
0
  6
CONTINUOUS
 62
     3
 10
23305.7
 20
11119.4
 30
0.0
 11
23178.0
 21
11314.5
 31
0.0
  0
LINE
  5
6A9
  8
0
  6
CONTINUOUS
 62
     3
 10
23755.5
 20
11314.4
 30
0.0
 11
23755.5
 21
10924.4
 31
0.0
  0
LINE
  5
6AA
  8
0
  6
CONTINUOUS
 62
     3
 10
22981.4
 20
11119.4
 30
0.0
 11
22851.3
 21
10896.5
 31
0.0
  0
LINE
  5
6AB
  8
0
  6
CONTINUOUS
 62
     3
 10
22997.1
 20
11092.4
 30
0.0
 11
22884.5
 21
10899.3
 31
0.0
  0
LINE
  5
6AC
  8
0
  6
CONTINUOUS
 62
     3
 10
22672.5
 20
11148.6
 30
0.0
 11
22557.4
 21
11367.3
 31
0.0
  0
LINE
  5
6AD
  8
0
  6
CONTINUOUS
 62
     3
 10
22484.8
 20
11373.5
 30
0.0
 11
22363.0
 21
11119.4
 31
0.0
  0
LINE
  5
6AE
  8
0
  6
CONTINUOUS
 62
     3
 10
22657.1
 20
11119.4
 30
0.0
 11
22525.2
 21
11370.0
 31
0.0
  0
LINE
  5
6AF
  8
0
  6
CONTINUOUS
 62
     3
 10
22023.5
 20
11153.2
 30
0.0
 11
21904.9
 21
11422.8
 31
0.0
  0
LINE
  5
6B0
  8
0
  6
CONTINUOUS
 62
     3
 10
22008.6
 20
11119.4
 30
0.0
 11
21874.0
 21
11425.4
 31
0.0
  0
LINE
  5
6B1
  8
0
  6
CONTINUOUS
 62
     3
 10
22332.8
 20
11119.4
 30
0.0
 11
22199.5
 21
10841.0
 31
0.0
  0
LINE
  5
6B2
  8
0
  6
CONTINUOUS
 62
     3
 10
22347.9
 20
11087.9
 30
0.0
 11
22230.9
 21
10843.7
 31
0.0
  0
LINE
  5
6B3
  8
0
  6
CONTINUOUS
 62
     3
 10
22162.2
 20
10837.8
 30
0.0
 11
22038.3
 21
11119.4
 31
0.0
  0
LINE
  5
6B4
  8
0
  6
CONTINUOUS
 62
     3
 10
22230.9
 20
11395.1
 30
0.0
 11
22484.8
 21
10865.3
 31
0.0
  0
LINE
  5
6B5
  8
0
  6
CONTINUOUS
 62
     3
 10
23755.5
 20
10924.4
 30
0.0
 11
24955.5
 21
11019.4
 31
0.0
  0
LINE
  5
6B6
  8
0
  6
CONTINUOUS
 62
     3
 10
22199.5
 20
11397.8
 30
0.0
 11
22455.8
 21
10862.8
 31
0.0
  0
LINE
  5
6B7
  8
0
  6
CONTINUOUS
 62
     3
 10
22455.8
 20
11375.9
 30
0.0
 11
22347.9
 21
11150.9
 31
0.0
  0
LINE
  5
6B8
  8
0
  6
CONTINUOUS
 62
     3
 10
24955.5
 20
11219.4
 30
0.0
 11
23755.5
 21
11314.4
 31
0.0
  0
LINE
  5
6B9
  8
0
  6
CONTINUOUS
 62
     3
 10
22525.2
 20
10868.7
 30
0.0
 11
22777.7
 21
11348.6
 31
0.0
  0
LINE
  5
6BA
  8
0
  6
CONTINUOUS
 62
     3
 10
22777.7
 20
10890.2
 30
0.0
 11
22672.5
 21
11090.2
 31
0.0
  0
LINE
  5
6BB
  8
0
  6
CONTINUOUS
 62
     3
 10
22807.1
 20
10892.7
 30
0.0
 11
22687.8
 21
11119.4
 31
0.0
  0
LINE
  5
6BC
  8
0
  6
CONTINUOUS
 62
     3
 10
23129.2
 20
11318.7
 30
0.0
 11
23012.9
 21
11119.4
 31
0.0
  0
LINE
  5
6BD
  8
0
  6
CONTINUOUS
 62
     3
 10
23099.2
 20
11321.2
 30
0.0
 11
22997.1
 21
11146.4
 31
0.0
  0
LINE
  5
6BE
  8
0
  6
CONTINUOUS
 62
     3
 10
22884.5
 20
11339.5
 30
0.0
 11
23129.2
 21
10920.1
 31
0.0
  0
LINE
  5
6BF
  8
0
  6
CONTINUOUS
 62
     3
 10
22851.3
 20
11342.3
 30
0.0
 11
23099.2
 21
10917.5
 31
0.0
  0
LINE
  5
6C0
  8
0
  6
CONTINUOUS
 62
     3
 10
23212.4
 20
10927.2
 30
0.0
 11
23450.7
 21
11291.3
 31
0.0
  0
LINE
  5
6C1
  8
0
  6
CONTINUOUS
 62
     3
 10
23178.0
 20
10924.3
 30
0.0
 11
23419.9
 21
11293.9
 31
0.0
  0
LINE
  5
6C2
  8
0
  6
CONTINUOUS
 62
     3
 10
23450.7
 20
10947.5
 30
0.0
 11
23338.2
 21
11119.4
 31
0.0
  0
LINE
  5
6C3
  8
0
  6
CONTINUOUS
 62
     3
 10
23419.9
 20
10944.8
 30
0.0
 11
23322.0
 21
11094.5
 31
0.0
  0
LINE
  5
6C4
  8
0
  6
CONTINUOUS
 62
     3
 10
23755.5
 20
11242.2
 30
0.0
 11
23664.0
 21
11119.4
 31
0.0
  0
LINE
  5
6C5
  8
0
  6
CONTINUOUS
 62
     3
 10
23739.8
 20
11266.7
 30
0.0
 11
23647.0
 21
11142.1
 31
0.0
  0
LINE
  5
6C6
  8
0
  6
CONTINUOUS
 62
     3
 10
23541.7
 20
11283.6
 30
0.0
 11
23755.5
 21
10996.5
 31
0.0
  0
LINE
  5
6C7
  8
0
  6
CONTINUOUS
 62
     3
 10
23630.1
 20
11119.4
 30
0.0
 11
23505.5
 21
10952.1
 31
0.0
  0
LINE
  5
6C8
  8
0
  6
CONTINUOUS
 62
     3
 10
23647.0
 20
11096.6
 30
0.0
 11
23541.7
 21
10955.2
 31
0.0
  0
LINE
  5
6C9
  8
0
  6
CONTINUOUS
 62
     3
 10
21684.4
 20
11119.4
 30
0.0
 11
21548.8
 21
10785.6
 31
0.0
  0
LINE
  5
6CA
  8
0
  6
CONTINUOUS
 62
     3
 10
21699.1
 20
11083.3
 30
0.0
 11
21579.2
 21
10788.2
 31
0.0
  0
ARC
  5
6F7
  8
0
  6
CONTINUOUS
 62
     3
 10
2715.34
 20
4982.47
 30
0.0
 40
75.0007
 50
164.181
 51
300.567
  0
ARC
  5
6F8
  8
0
  6
CONTINUOUS
 62
     3
 10
2715.34
 20
4982.47
 30
0.0
 40
116.0
 50
114.465
 51
350.273
  0
ARC
  5
6F9
  8
0
  6
CONTINUOUS
 62
     3
 10
3085.34
 20
5462.47
 30
0.0
 40
458.0
 50
180.0
 51
300.0
  0
ARC
  5
6FA
  8
0
  6
CONTINUOUS
 62
     3
 10
3220.34
 20
6012.47
 30
0.0
 40
32.4961
 50
0.0
 51
180.0
  0
CIRCLE
  5
6FB
  8
0
  6
CONTINUOUS
 62
     3
 10
2715.34
 20
4982.47
 30
0.0
 40
35.25
  0
ARC
  5
6FC
  8
0
  6
CONTINUOUS
 62
     3
 10
2665.34
 20
5671.35
 30
0.0
 40
37.9995
 50
109.711
 51
180.0
  0
ARC
  5
6FE
  8
0
  6
CONTINUOUS
 62
     3
 10
3671.04
 20
5149.27
 30
0.0
 40
49.999
 50
238.761
 51
342.78
  0
ARC
  5
6FF
  8
0
  6
CONTINUOUS
 62
     3
 10
3685.34
 20
5962.47
 30
0.0
 40
100.0
 50
53.242
 51
109.796
  0
CIRCLE
  5
700
  8
0
  6
CONTINUOUS
 62
     3
 10
3685.34
 20
5962.47
 30
0.0
 40
49.9999
  0
ARC
  5
701
  8
0
  6
CONTINUOUS
 62
     3
 10
8307.44
 20
4941.62
 30
0.0
 40
19.9984
 50
192.564
 51
285.149
  0
ARC
  5
702
  8
0
  6
CONTINUOUS
 62
     3
 10
8585.34
 20
5012.48
 30
0.0
 40
63.0001
 50
82.097
 51
277.9029
  0
CIRCLE
  5
703
  8
0
  6
CONTINUOUS
 62
     3
 10
8585.34
 20
5012.48
 30
0.0
 40
30.0
  0
ARC
  5
704
  8
0
  6
CONTINUOUS
 62
     3
 10
8585.34
 20
5012.47
 30
0.0
 40
63.0001
 50
262.097
 51
97.9029
  0
CIRCLE
  5
705
  8
0
  6
CONTINUOUS
 62
     3
 10
8585.34
 20
5012.48
 30
0.0
 40
30.0
  0
ARC
  5
706
  8
0
  6
CONTINUOUS
 62
     3
 10
8420.44
 20
6104.8
 30
0.0
 40
34.9995
 50
338.224
 51
21.7759
  0
ARC
  5
707
  8
0
  6
CONTINUOUS
 62
     3
 10
8420.44
 20
6104.8
 30
0.0
 40
34.9992
 50
158.208
 51
201.792
  0
ARC
  5
708
  8
0
  6
CONTINUOUS
 62
     3
 10
8585.34
 20
6012.48
 30
0.0
 40
63.0001
 50
82.097
 51
277.9029
  0
CIRCLE
  5
709
  8
0
  6
CONTINUOUS
 62
     3
 10
8585.34
 20
6012.47
 30
0.0
 40
30.0
  0
ARC
  5
70A
  8
0
  6
CONTINUOUS
 62
     3
 10
8585.34
 20
6012.47
 30
0.0
 40
63.0001
 50
262.097
 51
97.9029
  0
CIRCLE
  5
70B
  8
0
  6
CONTINUOUS
 62
     3
 10
8585.34
 20
6012.47
 30
0.0
 40
30.0
  0
ARC
  5
70C
  8
0
  6
CONTINUOUS
 62
     3
 10
17585.3
 20
6012.47
 30
0.0
 40
63.0001
 50
262.097
 51
97.9029
  0
CIRCLE
  5
70D
  8
0
  6
CONTINUOUS
 62
     3
 10
17585.3
 20
6012.47
 30
0.0
 40
30.0
  0
ARC
  5
70E
  8
0
  6
CONTINUOUS
 62
     3
 10
17585.3
 20
5012.47
 30
0.0
 40
63.0001
 50
262.097
 51
97.9029
  0
CIRCLE
  5
70F
  8
0
  6
CONTINUOUS
 62
     3
 10
17585.3
 20
5012.47
 30
0.0
 40
30.0
  0
ARC
  5
710
  8
0
  6
CONTINUOUS
 62
     3
 10
17585.3
 20
6012.48
 30
0.0
 40
63.0001
 50
82.097
 51
277.9029
  0
CIRCLE
  5
711
  8
0
  6
CONTINUOUS
 62
     3
 10
17585.3
 20
6012.47
 30
0.0
 40
30.0
  0
ARC
  5
712
  8
0
  6
CONTINUOUS
 62
     3
 10
17585.3
 20
5012.48
 30
0.0
 40
63.0001
 50
82.097
 51
277.9029
  0
CIRCLE
  5
713
  8
0
  6
CONTINUOUS
 62
     3
 10
17585.3
 20
5012.48
 30
0.0
 40
30.0
  0
CIRCLE
  5
714
  8
0
  6
CONTINUOUS
 62
     3
 10
17735.3
 20
6117.47
 30
0.0
 40
35.0
  0
ARC
  5
715
  8
0
  6
CONTINUOUS
 62
     3
 10
17735.3
 20
6117.47
 30
0.0
 40
49.9999
 50
70.3538
 51
180.799
  0
ARC
  5
716
  8
0
  6
CONTINUOUS
 62
     3
 10
26585.3
 20
5012.47
 30
0.0
 40
63.0001
 50
262.097
 51
97.9029
  0
CIRCLE
  5
717
  8
0
  6
CONTINUOUS
 62
     3
 10
26585.3
 20
5012.47
 30
0.0
 40
30.0
  0
ARC
  5
718
  8
0
  6
CONTINUOUS
 62
     3
 10
26585.3
 20
5012.48
 30
0.0
 40
63.0001
 50
82.097
 51
277.9029
  0
CIRCLE
  5
719
  8
0
  6
CONTINUOUS
 62
     3
 10
26585.3
 20
5012.48
 30
0.0
 40
30.0
  0
ARC
  5
71A
  8
0
  6
CONTINUOUS
 62
     3
 10
26585.3
 20
6012.47
 30
0.0
 40
63.0001
 50
262.097
 51
97.9029
  0
CIRCLE
  5
71B
  8
0
  6
CONTINUOUS
 62
     3
 10
26585.3
 20
6012.47
 30
0.0
 40
30.0
  0
ARC
  5
71C
  8
0
  6
CONTINUOUS
 62
     3
 10
26585.3
 20
6012.48
 30
0.0
 40
63.0001
 50
82.097
 51
277.9029
  0
CIRCLE
  5
71D
  8
0
  6
CONTINUOUS
 62
     3
 10
26585.3
 20
6012.47
 30
0.0
 40
30.0
  0
ARC
  5
71E
  8
0
  6
CONTINUOUS
 62
     3
 10
35585.3
 20
5012.47
 30
0.0
 40
63.0001
 50
262.097
 51
97.9029
  0
CIRCLE
  5
71F
  8
0
  6
CONTINUOUS
 62
     3
 10
35585.3
 20
5012.47
 30
0.0
 40
30.0
  0
CIRCLE
  5
720
  8
0
  6
CONTINUOUS
 62
     3
 10
35585.3
 20
5012.47
 30
0.0
 40
30.0
  0
ARC
  5
721
  8
0
  6
CONTINUOUS
 62
     3
 10
35585.3
 20
5012.47
 30
0.0
 40
62.9999
 50
82.098
 51
277.902
  0
ARC
  5
722
  8
0
  6
CONTINUOUS
 62
     3
 10
35585.3
 20
6012.47
 30
0.0
 40
63.0001
 50
262.097
 51
97.9029
  0
CIRCLE
  5
723
  8
0
  6
CONTINUOUS
 62
     3
 10
35585.3
 20
6012.47
 30
0.0
 40
30.0
  0
ARC
  5
724
  8
0
  6
CONTINUOUS
 62
     3
 10
35730.4
 20
6119.97
 30
0.0
 40
29.9999
 50
18.896
 51
90.0382
  0
ARC
  5
725
  8
0
  6
CONTINUOUS
 62
     3
 10
35730.3
 20
6119.97
 30
0.0
 40
29.9999
 50
89.9618
 51
161.104
  0
CIRCLE
  5
726
  8
0
  6
CONTINUOUS
 62
     3
 10
35730.4
 20
6119.94
 30
0.0
 40
17.5
  0
ARC
  5
727
  8
0
  6
CONTINUOUS
 62
     3
 10
35585.3
 20
6012.46
 30
0.0
 40
62.9999
 50
82.098
 51
277.902
  0
CIRCLE
  5
728
  8
0
  6
CONTINUOUS
 62
     3
 10
35585.3
 20
6012.47
 30
0.0
 40
30.0
  0
ARC
  5
729
  8
0
  6
CONTINUOUS
 62
     3
 10
39160.3
 20
5512.47
 30
0.0
 40
99.9999
 50
306.398
 51
53.6022
  0
ARC
  5
72A
  8
0
  6
CONTINUOUS
 62
     3
 10
39489.8
 20
5857.07
 30
0.0
 40
45.0
 50
355.60998
 51
118.351
  0
CIRCLE
  5
72B
  8
0
  6
CONTINUOUS
 62
     3
 10
39489.8
 20
5857.06
 30
0.0
 40
27.5
  0
ARC
  5
72C
  8
0
  6
CONTINUOUS
 62
     3
 10
40633.8
 20
5735.13
 30
0.0
 40
29.9999
 50
12.4848
 51
175.2
  0
ARC
  5
72D
  8
0
  6
CONTINUOUS
 62
     3
 10
40480.5
 20
6164.11
 30
0.0
 40
29.9999
 50
19.6747
 51
199.674
  0
ARC
  5
72E
  8
0
  6
CONTINUOUS
 62
     3
 10
41085.3
 20
5512.47
 30
0.0
 40
80.0
 50
89.6298
 51
270.0
  0
ARC
  5
72F
  8
0
  6
CONTINUOUS
 62
     3
 10
41280.3
 20
5539.97
 30
0.0
 40
43.0
 50
0.0
 51
90.0
  0
ARC
  5
730
  8
0
  6
CONTINUOUS
 62
     3
 10
40648.3
 20
5512.47
 30
0.0
 40
39.9999
 50
306.906
 51
53.4719
  0
ARC
  5
731
  8
0
  6
CONTINUOUS
 62
     3
 10
41085.3
 20
5512.47
 30
0.0
 40
79.9999
 50
308.682
 51
51.3178
  0
ARC
  5
732
  8
0
  6
CONTINUOUS
 62
     3
 10
41280.3
 20
5484.97
 30
0.0
 40
30.0
 50
270.0
 51
0.0
  0
ARC
  5
733
  8
0
  6
CONTINUOUS
 62
     3
 10
41280.3
 20
5484.97
 30
0.0
 40
43.0
 50
270.0
 51
0.0
  0
ARC
  5
734
  8
0
  6
CONTINUOUS
 62
     3
 10
41280.3
 20
5539.97
 30
0.0
 40
30.0
 50
0.0
 51
90.0
  0
ARC
  5
735
  8
0
  6
CONTINUOUS
 62
     3
 10
40823.3
 20
6431.66
 30
0.0
 40
28.0
 50
317.609
 51
89.0139
  0
ARC
  5
736
  8
0
  6
CONTINUOUS
 62
     3
 10
40785.3
 20
6152.47
 30
0.0
 40
79.9997
 50
61.828
 51
280.073
  0
ARC
  5
737
  8
0
  6
CONTINUOUS
 62
     3
 10
40785.3
 20
6152.49
 30
0.0
 40
120.057
 50
57.6385
 51
213.919
  0
ARC
  5
738
  8
0
  6
CONTINUOUS
 62
     3
 10
41085.3
 20
5512.47
 30
0.0
 40
149.917
 50
202.362
 51
270.1445
  0
ARC
  5
739
  8
0
  6
CONTINUOUS
 62
     3
 10
41085.3
 20
5512.47
 30
0.0
 40
134.738
 50
106.485
 51
270.5413
  0
ARC
  5
73A
  8
0
  6
CONTINUOUS
 62
     3
 10
41785.3
 20
5912.47
 30
0.0
 40
45.0008
 50
50.9417
 51
185.116
  0
ARC
  5
73B
  8
0
  6
CONTINUOUS
 62
     3
 10
40850.0
 20
6493.47
 30
0.0
 40
30.0001
 50
118.148
 51
208.147
  0
ARC
  5
73C
  8
0
  6
CONTINUOUS
 62
     3
 10
40785.4
 20
6152.47
 30
0.0
 40
119.999
 50
48.9134
 51
57.7029
  0
ARC
  5
73D
  8
0
  6
CONTINUOUS
 62
     3
 10
40878.4
 20
6440.57
 30
0.0
 40
30.0009
 50
208.147
 51
298.148
  0
CIRCLE
  5
73E
  8
0
  6
CONTINUOUS
 62
     3
 10
41681.0
 20
7404.57
 30
0.0
 40
35.25
  0
ARC
  5
73F
  8
0
  6
CONTINUOUS
 62
     3
 10
45085.3
 20
6012.47
 30
0.0
 40
120.0
 50
270.0
 51
95.1172
  0
CIRCLE
  5
740
  8
0
  6
CONTINUOUS
 62
     3
 10
44206.1
 20
5088.27
 30
0.0
 40
19.05
  0
CIRCLE
  5
741
  8
0
  6
CONTINUOUS
 62
     3
 10
44206.1
 20
5088.27
 30
0.0
 40
13.0
  0
ARC
  5
742
  8
0
  6
CONTINUOUS
 62
     3
 10
45155.3
 20
5103.77
 30
0.0
 40
10.0004
 50
285.009
 51
0.0
  0
ARC
  5
743
  8
0
  6
CONTINUOUS
 62
     3
 10
45155.3
 20
4921.27
 30
0.0
 40
10.0
 50
0.0
 51
74.9907
  0
ARC
  5
744
  8
0
  6
CONTINUOUS
 62
     3
 10
45085.3
 20
5012.47
 30
0.0
 40
60.0
 50
104.589
 51
255.946
  0
CIRCLE
  5
745
  8
0
  6
CONTINUOUS
 62
     3
 10
45085.3
 20
6012.47
 30
0.0
 40
50.0
  0
CIRCLE
  5
746
  8
0
  6
CONTINUOUS
 62
     3
 10
45085.3
 20
6012.47
 30
0.0
 40
50.0
  0
ARC
  5
747
  8
0
  6
CONTINUOUS
 62
     3
 10
43291.0
 20
13408.8
 30
0.0
 40
89.9999
 50
262.493
 51
110.547
  0
CIRCLE
  5
748
  8
0
  6
CONTINUOUS
 62
     3
 10
43291.0
 20
13408.8
 30
0.0
 40
39.9999
  0
ARC
  5
749
  8
0
  6
CONTINUOUS
 62
     3
 10
40538.0
 20
6528.45
 30
0.0
 40
79.9997
 50
63.1653
 51
212.055
  0
CIRCLE
  5
74A
  8
0
  6
CONTINUOUS
 62
     3
 10
40538.0
 20
6528.45
 30
0.0
 40
40.0
  0
ARC
  5
74B
  8
0
  6
CONTINUOUS
 62
     3
 10
40827.5
 20
6050.45
 30
0.0
 40
10.0
 50
240.767
 51
332.5302
  0
ARC
  5
74C
  8
0
  6
CONTINUOUS
 62
     3
 10
40261.4
 20
7304.05
 30
0.0
 40
40.0004
 50
303.328
 51
90.782
  0
ARC
  5
74D
  8
0
  6
CONTINUOUS
 62
     3
 10
41042.4
 20
7349.85
 30
0.0
 40
40.0
 50
158.998
 51
249.0
  0
ARC
  5
74E
  8
0
  6
CONTINUOUS
 62
     3
 10
41092.6
 20
7480.55
 30
0.0
 40
40.0006
 50
69.0
 51
158.998
  0
ARC
  5
74F
  8
0
  6
CONTINUOUS
 62
     3
 10
36664.5
 20
12419.0
 30
0.0
 40
222.499
 50
32.342
 51
253.601
  0
CIRCLE
  5
750
  8
0
  6
CONTINUOUS
 62
     3
 10
36664.5
 20
12419.0
 30
0.0
 40
65.0
  0
ARC
  5
751
  8
0
  6
CONTINUOUS
 62
     3
 10
36961.2
 20
12463.3
 30
0.0
 40
90.0001
 50
278.495
 51
97.43181
  0
CIRCLE
  5
752
  8
0
  6
CONTINUOUS
 62
     3
 10
36961.2
 20
12463.3
 30
0.0
 40
39.9999
  0
ARC
  5
753
  8
0
  6
CONTINUOUS
 62
     3
 10
36644.5
 20
12112.7
 30
0.0
 40
35.0059
 50
184.729
 51
303.329
  0
ARC
  5
754
  8
0
  6
CONTINUOUS
 62
     3
 10
37146.9
 20
12344.5
 30
0.0
 40
100.0
 50
98.4945
 51
116.874
  0
ARC
  5
755
  8
0
  6
CONTINUOUS
 62
     3
 10
37104.1
 20
12631.3
 30
0.0
 40
99.9998
 50
260.116
 51
278.495
  0
ARC
  5
756
  8
0
  6
CONTINUOUS
 62
     3
 10
39888.7
 20
12900.6
 30
0.0
 40
89.9997
 50
86.4416
 51
294.618
  0
CIRCLE
  5
757
  8
0
  6
CONTINUOUS
 62
     3
 10
39888.7
 20
12900.6
 30
0.0
 40
39.9999
  0
CIRCLE
  5
758
  8
0
  6
CONTINUOUS
 62
     3
 10
39888.7
 20
12900.6
 30
0.0
 40
39.9999
  0
ARC
  5
759
  8
0
  6
CONTINUOUS
 62
     3
 10
39702.9
 20
13019.5
 30
0.0
 40
99.9995
 50
278.495
 51
296.874
  0
ARC
  5
75A
  8
0
  6
CONTINUOUS
 62
     3
 10
39745.7
 20
12732.6
 30
0.0
 40
100.0
 50
80.1156
 51
98.4945
  0
ARC
  5
75B
  8
0
  6
CONTINUOUS
 62
     3
 10
40073.3
 20
12776.5
 30
0.0
 40
100.0
 50
98.4945
 51
114.755
  0
ARC
  5
75C
  8
0
  6
CONTINUOUS
 62
     3
 10
40023.9
 20
13082.6
 30
0.0
 40
100.0
 50
266.442
 51
278.495
  0
ARC
  5
75D
  8
0
  6
CONTINUOUS
 62
     3
 10
43150.6
 20
13236.1
 30
0.0
 40
100.0
 50
82.2341
 51
98.4945
  0
ARC
  5
75E
  8
0
  6
CONTINUOUS
 62
     3
 10
43108.5
 20
13543.3
 30
0.0
 40
99.9995
 50
278.495
 51
290.548
  0
ARC
  5
75F
  8
0
  6
CONTINUOUS
 62
     3
 10
43587.7
 20
13453.1
 30
0.0
 40
222.501
 50
308.433
 51
162.692
  0
ARC
  5
760
  8
0
  6
CONTINUOUS
 62
     3
 10
43837.5
 20
13260.0
 30
0.0
 40
15.0014
 50
26.7619
 51
206.762
  0
ARC
  5
761
  8
0
  6
CONTINUOUS
 62
     3
 10
43837.5
 20
13260.0
 30
0.0
 40
24.0012
 50
26.76
 51
206.76
  0
ARC
  5
762
  8
0
  6
CONTINUOUS
 62
     3
 10
43864.6
 20
13206.4
 30
0.0
 40
24.0012
 50
206.76
 51
26.76
  0
ARC
  5
763
  8
0
  6
CONTINUOUS
 62
     3
 10
43864.6
 20
13206.4
 30
0.0
 40
15.0014
 50
206.762
 51
26.7619
  0
CIRCLE
  5
764
  8
0
  6
CONTINUOUS
 62
     3
 10
43587.7
 20
13453.1
 30
0.0
 40
55.0
  0
CIRCLE
  5
765
  8
0
  6
CONTINUOUS
 62
     3
 10
43587.7
 20
13453.1
 30
0.0
 40
54.9987
  0
CIRCLE
  5
766
  8
0
  6
CONTINUOUS
 62
     3
 10
43587.7
 20
13453.1
 30
0.0
 40
54.9987
  0
CIRCLE
  5
767
  8
0
  6
CONTINUOUS
 62
     3
 10
21090.5
 20
10719.4
 30
0.0
 40
24.0
  0
ARC
  5
768
  8
0
  6
CONTINUOUS
 62
     3
 10
21090.4
 20
10719.4
 30
0.0
 40
50.3999
 50
82.098
 51
277.902
  0
ARC
  5
769
  8
0
  6
CONTINUOUS
 62
     3
 10
21090.4
 20
11519.4
 30
0.0
 40
50.3999
 50
82.098
 51
277.902
  0
CIRCLE
  5
76A
  8
0
  6
CONTINUOUS
 62
     3
 10
21090.5
 20
11519.4
 30
0.0
 40
24.0
  0
ARC
  5
76B
  8
0
  6
CONTINUOUS
 62
     3
 10
25090.5
 20
11119.4
 30
0.0
 40
63.9999
 50
308.682
 51
51.3178
  0
ARC
  5
76C
  8
0
  6
CONTINUOUS
 62
     3
 10
25090.5
 20
11119.4
 30
0.0
 40
64.0
 50
89.6298
 51
270.0
  0
CIRCLE
  5
76D
  8
0
  6
CONTINUOUS
 62
     3
 10
25090.5
 20
11323.4
 30
0.0
 40
25.0
  0
ARC
  5
76E
  8
0
  6
CONTINUOUS
 62
     3
 10
25090.5
 20
11323.4
 30
0.0
 40
50.0
 50
9.17728
 51
147.395
  0
ARC
  5
76F
  8
0
  6
CONTINUOUS
 62
     3
 10
25246.5
 20
11141.4
 30
0.0
 40
34.4
 50
0.0
 51
90.0
  0
ARC
  5
770
  8
0
  6
CONTINUOUS
 62
     3
 10
25246.5
 20
11141.4
 30
0.0
 40
24.0
 50
0.0
 51
90.0
  0
ARC
  5
771
  8
0
  6
CONTINUOUS
 62
     3
 10
25246.5
 20
11097.4
 30
0.0
 40
34.4
 50
270.0
 51
0.0
  0
ARC
  5
772
  8
0
  6
CONTINUOUS
 62
     3
 10
25246.5
 20
11097.4
 30
0.0
 40
24.0
 50
270.0
 51
0.0
  0
CIRCLE
  5
773
  8
0
  6
CONTINUOUS
 62
     3
 10
16090.5
 20
10719.4
 30
0.0
 40
24.0
  0
ARC
  5
774
  8
0
  6
CONTINUOUS
 62
     3
 10
16090.5
 20
10719.4
 30
0.0
 40
50.4001
 50
82.097
 51
277.9029
  0
CIRCLE
  5
775
  8
0
  6
CONTINUOUS
 62
     3
 10
16090.5
 20
11519.4
 30
0.0
 40
24.0
  0
ARC
  5
776
  8
0
  6
CONTINUOUS
 62
     3
 10
16090.5
 20
11519.4
 30
0.0
 40
50.4001
 50
82.097
 51
277.9029
  0
ARC
  5
777
  8
0
  6
CONTINUOUS
 62
     3
 10
21090.5
 20
10719.4
 30
0.0
 40
50.4001
 50
262.097
 51
97.9029
  0
CIRCLE
  5
778
  8
0
  6
CONTINUOUS
 62
     3
 10
21090.5
 20
10719.4
 30
0.0
 40
24.0
  0
ARC
  5
779
  8
0
  6
CONTINUOUS
 62
     3
 10
21090.5
 20
11519.4
 30
0.0
 40
50.4001
 50
262.097
 51
97.9029
  0
CIRCLE
  5
77A
  8
0
  6
CONTINUOUS
 62
     3
 10
21090.5
 20
11519.4
 30
0.0
 40
24.0
  0
CIRCLE
  5
77B
  8
0
  6
CONTINUOUS
 62
     3
 10
11090.5
 20
10719.4
 30
0.0
 40
24.0
  0
ARC
  5
77C
  8
0
  6
CONTINUOUS
 62
     3
 10
11090.5
 20
10719.4
 30
0.0
 40
50.4001
 50
82.097
 51
277.9029
  0
CIRCLE
  5
77D
  8
0
  6
CONTINUOUS
 62
     3
 10
11090.5
 20
11519.4
 30
0.0
 40
24.0
  0
ARC
  5
77E
  8
0
  6
CONTINUOUS
 62
     3
 10
11090.5
 20
11519.4
 30
0.0
 40
50.4001
 50
82.097
 51
277.9029
  0
ARC
  5
77F
  8
0
  6
CONTINUOUS
 62
     3
 10
16090.5
 20
10719.4
 30
0.0
 40
50.4001
 50
262.097
 51
97.9029
  0
CIRCLE
  5
780
  8
0
  6
CONTINUOUS
 62
     3
 10
16090.5
 20
10719.4
 30
0.0
 40
24.0
  0
ARC
  5
781
  8
0
  6
CONTINUOUS
 62
     3
 10
16090.5
 20
11519.4
 30
0.0
 40
50.4001
 50
262.097
 51
97.9029
  0
CIRCLE
  5
782
  8
0
  6
CONTINUOUS
 62
     3
 10
16090.5
 20
11519.4
 30
0.0
 40
24.0
  0
ARC
  5
783
  8
0
  6
CONTINUOUS
 62
     3
 10
7090.46
 20
11079.4
 30
0.0
 40
366.4
 50
180.0
 51
300.0
  0
ARC
  5
784
  8
0
  6
CONTINUOUS
 62
     3
 10
7299.42
 20
11407.5
 30
0.0
 40
30.0
 50
81.154
 51
130.353
  0
CIRCLE
  5
785
  8
0
  6
CONTINUOUS
 62
     3
 10
7290.46
 20
11369.4
 30
0.0
 40
39.9999
  0
CIRCLE
  5
786
  8
0
  6
CONTINUOUS
 62
     3
 10
11090.5
 20
11519.4
 30
0.0
 40
24.0
  0
ARC
  5
787
  8
0
  6
CONTINUOUS
 62
     3
 10
11090.5
 20
11519.4
 30
0.0
 40
50.4001
 50
262.097
 51
97.9029
  0
ARC
  5
788
  8
0
  6
CONTINUOUS
 62
     3
 10
11090.5
 20
10719.4
 30
0.0
 40
50.4001
 50
262.097
 51
97.9029
  0
CIRCLE
  5
789
  8
0
  6
CONTINUOUS
 62
     3
 10
11090.5
 20
10719.4
 30
0.0
 40
24.0
  0
ARC
  5
78A
  8
0
  6
CONTINUOUS
 62
     3
 10
25090.5
 20
11323.4
 30
0.0
 40
40.0
 50
185.602
 51
354.39831
  0
CIRCLE
  5
78B
  8
0
  6
CONTINUOUS
 62
     3
 10
25090.5
 20
11323.4
 30
0.0
 40
25.0
  0
CIRCLE
  5
78C
  8
0
  6
CONTINUOUS
 62
     3
 10
25090.5
 20
15823.4
 30
0.0
 40
12.5
  0
CIRCLE
  5
7A7
  8
0
  6
CONTINUOUS
 62
     3
 10
39675.3
 20
5512.47
 30
0.0
 40
64.9999
  0
ARC
  5
7B4
  8
0
  6
CONTINUOUS
 62
     3
 10
7090.46
 20
11119.4
 30
0.0
 40
310.0
 50
61.984
 51
152.971
  0
TEXT
  5
7BF
  8
0
  6
CONTINUOUS
 62
     7
 10
35294.558383
 20
19833.176309
 30
0.0
 40
560.0
  1
AR200121P
 41
0.75
  0
TEXT
  5
7C0
  8
0
  6
CONTINUOUS
 62
     7
 10
35304.883312
 20
19020.121022
 30
0.0
 40
560.0
  1
AR-2000M
 41
0.75
  0
TEXT
  5
7C1
  8
0
  6
CONTINUOUS
 62
     7
 10
35198.858383
 20
18204.876309
 30
0.0
 40
560.0
  1
âëâtâBâôâOâWâu
  0
TEXT
  5
7C2
  8
0
  6
CONTINUOUS
 62
     7
 10
30800.158383
 20
18992.442044
 30
0.0
 40
640.0
  1
ï@ü@ü@ü@ÄÝ
  0
TEXT
  5
7C3
  8
0
  6
CONTINUOUS
 62
     7
 10
30818.658383
 20
19806.542044
 30
0.0
 40
640.0
  1
âtâ@âCâïû╝
  0
TEXT
  5
7C4
  8
0
  6
CONTINUOUS
 62
     7
 10
30781.558383
 20
18181.776309
 30
0.0
 40
640.0
  1
âXâyâbâN
  0
POINT
  5
7CD
  8
ô_
 62
     1
 10
7090.46
 20
11119.4
 30
0.0
  0
POINT
  5
7CF
  8
ô_
 62
     1
 10
11090.5
 20
11519.4
 30
0.0
  0
POINT
  5
7D0
  8
ô_
 62
     1
 10
11090.5
 20
10719.4
 30
0.0
  0
POINT
  5
7D1
  8
ô_
 62
     1
 10
16090.5
 20
11519.4
 30
0.0
  0
POINT
  5
7D2
  8
ô_
 62
     1
 10
16090.5
 20
10719.4
 30
0.0
  0
POINT
  5
7D3
  8
ô_
 62
     1
 10
21090.5
 20
11519.4
 30
0.0
  0
POINT
  5
7D4
  8
ô_
 62
     1
 10
21090.5
 20
10719.4
 30
0.0
  0
POINT
  5
7D5
  8
ô_
 62
     1
 10
25090.5
 20
11119.4
 30
0.0
  0
POINT
  5
7D6
  8
ô_
 62
     1
 10
25090.5
 20
11323.4
 30
0.0
  0
POINT
  5
7D7
  8
ô_
 62
     1
 10
3085.34
 20
5362.47
 30
0.0
  0
POINT
  5
7D8
  8
ô_
 62
     1
 10
8585.34
 20
6012.47
 30
0.0
  0
POINT
  5
7D9
  8
ô_
 62
     1
 10
8585.34
 20
5012.48
 30
0.0
  0
POINT
  5
7DA
  8
ô_
 62
     1
 10
17585.3
 20
6012.47
 30
0.0
  0
POINT
  5
7DB
  8
ô_
 62
     1
 10
17585.3
 20
5012.48
 30
0.0
  0
POINT
  5
7DC
  8
ô_
 62
     1
 10
26585.3
 20
6012.47
 30
0.0
  0
POINT
  5
7DD
  8
ô_
 62
     1
 10
26585.3
 20
5012.48
 30
0.0
  0
POINT
  5
7E0
  8
ô_
 62
     1
 10
35585.3
 20
6012.47
 30
0.0
  0
POINT
  5
7E1
  8
ô_
 62
     1
 10
35585.3
 20
5012.47
 30
0.0
  0
POINT
  5
7E2
  8
ô_
 62
     1
 10
41085.3
 20
5512.47
 30
0.0
  0
POINT
  5
7E3
  8
ô_
 62
     1
 10
40785.3
 20
6152.49
 30
0.0
  0
POINT
  5
7E4
  8
ô_
 62
     1
 10
45085.3
 20
6012.47
 30
0.0
  0
POINT
  5
7E5
  8
ô_
 62
     1
 10
45085.3
 20
5012.47
 30
0.0
  0
LINE
  5
7E9
  8
ô_
 62
     3
 10
10984.5
 20
11559.3
 30
0.0
 11
11026.5
 21
11561.4
 31
0.0
  0
LINE
  5
7EA
  8
ô_
 62
     3
 10
10782.1
 20
10696.2
 30
0.0
 11
10781.8
 21
10692.2
 31
0.0
  0
LINE
  5
7EC
  8
ô_
 62
     3
 10
10986.5
 20
10755.4
 30
0.0
 11
11026.5
 21
10761.4
 31
0.0
  0
LINE
  5
7ED
  8
ô_
 62
     3
 10
11026.5
 20
10677.4
 30
0.0
 11
10981.4
 21
10679.6
 31
0.0
  0
ARC
  5
80B
  8
0
  6
CONTINUOUS
 62
     3
 10
4983.277987
 20
5512.29
 30
0.0
 40
100.0
 50
123.181917
 51
236.822969
  0
ARC
  5
80C
  8
0
  6
CONTINUOUS
 62
     3
 10
8245.170193
 20
11119.400001
 30
0.0
 40
100.0
 50
123.181561
 51
236.818439
  0
LINE
  5
813
  8
ô_
 62
     3
 10
8455.34
 20
5967.37
 30
0.0
 11
8505.34
 21
5959.97
 31
0.0
  0
LINE
  5
815
  8
ô_
 62
     3
 10
35971.0
 20
6042.98
 30
0.0
 11
35970.6
 21
6037.99
 31
0.0
  0
TEXT
  8
0
  40
320
  5
8E3
  62
7
  72
0
  71
0
 10
30533.4
 20
22847.6
 30
0.000000
  1
ALL RIGHTS RESERVED,COPYRIGHT(C) TADANOSYSTEMS INC.
  0
LINE
  5
876
  8
0
  6
CONTINUOUS
 62
     7
 10
33011.539115
 20
22462.0235
 30
0.0
 11
33011.539115
 21
21902.0235
 31
0.0
  0
LINE
  5
877
  8
0
  6
CONTINUOUS
 62
     7
 10
31443.539115
 20
22462.0235
 30
0.0
 11
31443.539115
 21
21622.0235
 31
0.0
  0
LINE
  5
878
  8
0
  6
CONTINUOUS
 62
     7
 10
31443.539115
 20
21622.0235
 30
0.0
 11
32535.539115
 21
22462.0235
 31
0.0
  0
LINE
  5
879
  8
0
  6
CONTINUOUS
 62
     7
 10
31723.539115
 20
21342.0235
 30
0.0
 11
32563.539115
 21
22462.0235
 31
0.0
  0
LINE
  5
87A
  8
0
  6
CONTINUOUS
 62
     7
 10
31723.539115
 20
21342.0235
 30
0.0
 11
32563.539115
 21
21342.0235
 31
0.0
  0
LINE
  5
87B
  8
0
  6
CONTINUOUS
 62
     7
 10
32563.539115
 20
21902.0235
 30
0.0
 11
32563.539115
 21
21342.0235
 31
0.0
  0
LINE
  5
87C
  8
0
  6
CONTINUOUS
 62
     7
 10
32563.539115
 20
21902.0235
 30
0.0
 11
33011.539115
 21
21902.0235
 31
0.0
  0
LINE
  5
87D
  8
0
  6
CONTINUOUS
 62
     7
 10
31443.539115
 20
22462.0235
 30
0.0
 11
32535.539115
 21
22462.0235
 31
0.0
  0
LINE
  5
87E
  8
0
  6
CONTINUOUS
 62
     7
 10
32563.539115
 20
22462.0235
 30
0.0
 11
33011.539115
 21
22462.0235
 31
0.0
  0
LINE
  5
87F
  8
0
  6
CONTINUOUS
 62
     7
 10
35098.259115
 20
21902.0235
 30
0.0
 11
35281.219115
 21
21902.0235
 31
0.0
  0
LINE
  5
880
  8
0
  6
CONTINUOUS
 62
     7
 10
35098.259115
 20
21902.0235
 30
0.0
 11
35300.899115
 21
22462.0235
 31
0.0
  0
LINE
  5
881
  8
0
  6
CONTINUOUS
 62
     7
 10
34777.379115
 20
22324.1035
 30
0.0
 11
34777.379115
 21
22042.6635
 31
0.0
  0
ARC
  5
882
  8
0
  6
CONTINUOUS
 62
     7
 10
34743.619115
 20
22182.0235
 30
0.0
 40
213.884
 50
340.276
 51
22.213
  0
ARC
  5
883
  8
0
  6
CONTINUOUS
 62
     7
 10
34754.899115
 20
22182.0235
 30
0.0
 40
368.668
 50
341.626
 51
23.9327
  0
LINE
  5
884
  8
0
  6
CONTINUOUS
 62
     7
 10
34295.459115
 20
22237.5435
 30
0.0
 11
34337.219115
 21
22101.7835
 31
0.0
  0
LINE
  5
885
  8
0
  6
CONTINUOUS
 62
     7
 10
34271.619115
 20
22237.5435
 30
0.0
 11
34229.699115
 21
22101.7835
 31
0.0
  0
LINE
  5
886
  8
0
  6
CONTINUOUS
 62
     7
 10
33727.779115
 20
22310.0235
 30
0.0
 11
33727.779115
 21
21902.0235
 31
0.0
  0
LINE
  5
887
  8
0
  6
CONTINUOUS
 62
     7
 10
34611.459115
 20
22462.0235
 30
0.0
 11
34611.459115
 21
21902.0235
 31
0.0
  0
LINE
  5
888
  8
0
  6
CONTINUOUS
 62
     7
 10
34379.219115
 20
22462.0235
 30
0.0
 11
34581.859115
 21
21902.0235
 31
0.0
  0
LINE
  5
889
  8
0
  6
CONTINUOUS
 62
     7
 10
34187.859115
 20
22462.0235
 30
0.0
 11
33985.219115
 21
21902.0235
 31
0.0
  0
LINE
  5
88A
  8
0
  6
CONTINUOUS
 62
     7
 10
33905.059115
 20
22310.0235
 30
0.0
 11
33905.059115
 21
21902.0235
 31
0.0
  0
LINE
  5
88B
  8
0
  6
CONTINUOUS
 62
     7
 10
34193.299115
 20
21983.6235
 30
0.0
 11
34168.099115
 21
21902.0235
 31
0.0
  0
LINE
  5
88C
  8
0
  6
CONTINUOUS
 62
     7
 10
33727.779115
 20
21902.0235
 30
0.0
 11
33905.059115
 21
21902.0235
 31
0.0
  0
LINE
  5
88D
  8
0
  6
CONTINUOUS
 62
     7
 10
33985.219115
 20
21902.0235
 30
0.0
 11
34168.099115
 21
21902.0235
 31
0.0
  0
LINE
  5
88E
  8
0
  6
CONTINUOUS
 62
     7
 10
34611.459115
 20
21902.0235
 30
0.0
 11
34877.779115
 21
21902.0235
 31
0.0
  0
LINE
  5
88F
  8
0
  6
CONTINUOUS
 62
     7
 10
34229.699115
 20
22101.7835
 30
0.0
 11
34337.219115
 21
22101.7835
 31
0.0
  0
LINE
  5
890
  8
0
  6
CONTINUOUS
 62
     7
 10
34193.299115
 20
21983.6235
 30
0.0
 11
34373.779115
 21
21983.6235
 31
0.0
  0
LINE
  5
891
  8
0
  6
CONTINUOUS
 62
     7
 10
34398.819115
 20
21902.0235
 30
0.0
 11
34581.859115
 21
21902.0235
 31
0.0
  0
LINE
  5
892
  8
0
  6
CONTINUOUS
 62
     7
 10
34373.779115
 20
21983.6235
 30
0.0
 11
34398.819115
 21
21902.0235
 31
0.0
  0
LINE
  5
893
  8
0
  6
CONTINUOUS
 62
     7
 10
34777.379115
 20
22042.6635
 30
0.0
 11
34849.619115
 21
22042.6635
 31
0.0
  0
ARC
  5
894
  8
0
  6
CONTINUOUS
 62
     7
 10
34849.619115
 20
22144.0235
 30
0.0
 40
101.3144
 50
270.0
 51
340.276
  0
ARC
  5
895
  8
0
  6
CONTINUOUS
 62
     7
 10
34877.779115
 20
22141.2235
 30
0.0
 40
239.212
 50
270.0
 51
341.626
  0
LINE
  5
896
  8
0
  6
CONTINUOUS
 62
     7
 10
33571.539115
 20
22462.0235
 30
0.0
 11
34061.139115
 21
22462.0235
 31
0.0
  0
LINE
  5
897
  8
0
  6
CONTINUOUS
 62
     7
 10
33571.539115
 20
22310.0235
 30
0.0
 11
33727.779115
 21
22310.0235
 31
0.0
  0
LINE
  5
898
  8
0
  6
CONTINUOUS
 62
     7
 10
33571.539115
 20
22462.0235
 30
0.0
 11
33571.539115
 21
22310.0235
 31
0.0
  0
LINE
  5
899
  8
0
  6
CONTINUOUS
 62
     7
 10
34061.139115
 20
22462.0235
 30
0.0
 11
34061.139115
 21
22310.0235
 31
0.0
  0
LINE
  5
89A
  8
0
  6
CONTINUOUS
 62
     7
 10
33905.059115
 20
22310.0235
 30
0.0
 11
34061.139115
 21
22310.0235
 31
0.0
  0
LINE
  5
89B
  8
0
  6
CONTINUOUS
 62
     7
 10
34611.459115
 20
22462.0235
 30
0.0
 11
34891.219115
 21
22462.0235
 31
0.0
  0
ARC
  5
89C
  8
0
  6
CONTINUOUS
 62
     7
 10
34576.179115
 20
22324.1035
 30
0.0
 40
293.7896
 50
188.261
 51
197.133
  0
ARC
  5
89D
  8
0
  6
CONTINUOUS
 62
     7
 10
33990.819115
 20
22324.1035
 30
0.0
 40
293.7904
 50
342.867
 51
351.73902
  0
LINE
  5
89E
  8
0
  6
CONTINUOUS
 62
     7
 10
34281.619115
 20
22281.9435
 30
0.0
 11
34285.539115
 21
22281.9435
 31
0.0
  0
LINE
  5
89F
  8
0
  6
CONTINUOUS
 62
     7
 10
34187.859115
 20
22462.0235
 30
0.0
 11
34379.219115
 21
22462.0235
 31
0.0
  0
ARC
  5
8A0
  8
0
  6
CONTINUOUS
 62
     7
 10
34850.419115
 20
22225.5435
 30
0.0
 40
98.4984
 50
22.2133
 51
90.0
  0
LINE
  5
8A1
  8
0
  6
CONTINUOUS
 62
     7
 10
34777.379115
 20
22324.1035
 30
0.0
 11
34850.419115
 21
22324.1035
 31
0.0
  0
ARC
  5
8A2
  8
0
  6
CONTINUOUS
 62
     7
 10
34891.219115
 20
22242.5035
 30
0.0
 40
219.5136
 50
23.9328
 51
90.0
  0
ARC
  5
8A3
  8
0
  6
CONTINUOUS
 62
     7
 10
36412.499115
 20
22182.0235
 30
0.0
 40
284.24
 50
345.311
 51
14.6886
  0
ARC
  5
8A4
  8
0
  6
CONTINUOUS
 62
     7
 10
36769.859115
 20
22182.0235
 30
0.0
 40
284.24
 50
165.132
 51
194.869
  0
ARC
  5
8A5
  8
0
  6
CONTINUOUS
 62
     7
 10
36537.699115
 20
22182.0235
 30
0.0
 40
337.7128
 50
332.938
 51
27.062
  0
ARC
  5
8A6
  8
0
  6
CONTINUOUS
 62
     7
 10
35524.579115
 20
22169.3835
 30
0.0
 40
360.2264
 50
0.0
 51
6.7299
  0
ARC
  5
8A7
  8
0
  6
CONTINUOUS
 62
     7
 10
36382.899115
 20
22462.0235
 30
0.0
 40
557.0016
 50
206.723
 51
211.578
  0
ARC
  5
8A8
  8
0
  6
CONTINUOUS
 62
     7
 10
36439.299115
 20
22194.6635
 30
0.0
 40
360.2264
 50
180.0
 51
186.73
  0
ARC
  5
8A9
  8
0
  6
CONTINUOUS
 62
     7
 10
35580.899115
 20
21902.0235
 30
0.0
 40
556.9992
 50
26.7228
 51
31.5781
  0
LINE
  5
8AA
  8
0
  6
CONTINUOUS
 62
     7
 10
35384.659115
 20
22237.5435
 30
0.0
 11
35342.819115
 21
22101.7835
 31
0.0
  0
LINE
  5
8AB
  8
0
  6
CONTINUOUS
 62
     7
 10
35408.499115
 20
22237.5435
 30
0.0
 11
35450.339115
 21
22101.7835
 31
0.0
  0
ARC
  5
8AC
  8
0
  6
CONTINUOUS
 62
     7
 10
36644.659115
 20
22182.0235
 30
0.0
 40
337.7128
 50
152.861
 51
207.131
  0
LINE
  5
8AD
  8
0
  6
CONTINUOUS
 62
     7
 10
35492.179115
 20
22462.0235
 30
0.0
 11
35694.899115
 21
21902.0235
 31
0.0
  0
LINE
  5
8AE
  8
0
  6
CONTINUOUS
 62
     7
 10
35724.339115
 20
22462.0235
 30
0.0
 11
35724.339115
 21
21902.0235
 31
0.0
  0
LINE
  5
8AF
  8
0
  6
CONTINUOUS
 62
     7
 10
36239.459115
 20
22462.0235
 30
0.0
 11
36239.459115
 21
21902.0235
 31
0.0
  0
LINE
  5
8B0
  8
0
  6
CONTINUOUS
 62
     7
 10
35724.339115
 20
21902.0235
 30
0.0
 11
35884.899115
 21
21902.0235
 31
0.0
  0
LINE
  5
8B1
  8
0
  6
CONTINUOUS
 62
     7
 10
35342.819115
 20
22101.7835
 30
0.0
 11
35450.339115
 21
22101.7835
 31
0.0
  0
LINE
  5
8B2
  8
0
  6
CONTINUOUS
 62
     7
 10
35306.259115
 20
21983.6235
 30
0.0
 11
35486.819115
 21
21983.6235
 31
0.0
  0
LINE
  5
8B3
  8
0
  6
CONTINUOUS
 62
     7
 10
35511.939115
 20
21902.0235
 30
0.0
 11
35694.899115
 21
21902.0235
 31
0.0
  0
LINE
  5
8B4
  8
0
  6
CONTINUOUS
 62
     7
 10
35306.259115
 20
21983.6235
 30
0.0
 11
35281.219115
 21
21902.0235
 31
0.0
  0
LINE
  5
8B5
  8
0
  6
CONTINUOUS
 62
     7
 10
35486.819115
 20
21983.6235
 30
0.0
 11
35511.939115
 21
21902.0235
 31
0.0
  0
LINE
  5
8B6
  8
0
  6
CONTINUOUS
 62
     7
 10
36078.419115
 20
22152.4235
 30
0.0
 11
36081.539115
 21
22152.4235
 31
0.0
  0
LINE
  5
8B7
  8
0
  6
CONTINUOUS
 62
     7
 10
36073.379115
 20
21902.0235
 30
0.0
 11
36239.459115
 21
21902.0235
 31
0.0
  0
LINE
  5
8B8
  8
0
  6
CONTINUOUS
 62
     7
 10
35908.419115
 20
22170.3435
 30
0.0
 11
36073.379115
 21
21902.0235
 31
0.0
  0
LINE
  5
8B9
  8
0
  6
CONTINUOUS
 62
     7
 10
35884.899115
 20
22169.3835
 30
0.0
 11
35884.899115
 21
21902.0235
 31
0.0
  0
ARC
  5
8BA
  8
0
  6
CONTINUOUS
 62
     7
 10
36591.219115
 20
22135.2235
 30
0.0
 40
99.4984
 50
195.203
 51
345.311
  0
ARC
  5
8BB
  8
0
  6
CONTINUOUS
 62
     7
 10
36591.219115
 20
22226.9835
 30
0.0
 40
337.7128
 50
252.699
 51
287.263
  0
ARC
  5
8BC
  8
0
  6
CONTINUOUS
 62
     7
 10
36564.499115
 20
22140.9835
 30
0.0
 40
247.6544
 50
206.967
 51
252.685
  0
ARC
  5
8BD
  8
0
  6
CONTINUOUS
 62
     7
 10
36617.939115
 20
22140.9835
 30
0.0
 40
247.6568
 50
287.263
 51
332.938
  0
LINE
  5
8BE
  8
0
  6
CONTINUOUS
 62
     7
 10
35724.339115
 20
22462.0235
 30
0.0
 11
35890.499115
 21
22462.0235
 31
0.0
  0
ARC
  5
8BF
  8
0
  6
CONTINUOUS
 62
     7
 10
35103.859115
 20
22324.1035
 30
0.0
 40
293.7904
 50
342.867
 51
351.73902
  0
ARC
  5
8C0
  8
0
  6
CONTINUOUS
 62
     7
 10
35689.219115
 20
22324.1035
 30
0.0
 40
293.7896
 50
188.261
 51
197.133
  0
LINE
  5
8C1
  8
0
  6
CONTINUOUS
 62
     7
 10
35394.659115
 20
22281.9435
 30
0.0
 11
35398.419115
 21
22281.9435
 31
0.0
  0
LINE
  5
8C2
  8
0
  6
CONTINUOUS
 62
     7
 10
35300.899115
 20
22462.0235
 30
0.0
 11
35492.179115
 21
22462.0235
 31
0.0
  0
LINE
  5
8C3
  8
0
  6
CONTINUOUS
 62
     7
 10
35890.499115
 20
22462.0235
 30
0.0
 11
36055.459115
 21
22193.6235
 31
0.0
  0
LINE
  5
8C4
  8
0
  6
CONTINUOUS
 62
     7
 10
35882.259115
 20
22211.5435
 30
0.0
 11
35885.459115
 21
22211.5435
 31
0.0
  0
LINE
  5
8C5
  8
0
  6
CONTINUOUS
 62
     7
 10
36078.979115
 20
22462.0235
 30
0.0
 11
36078.979115
 21
22194.6635
 31
0.0
  0
LINE
  5
8C6
  8
0
  6
CONTINUOUS
 62
     7
 10
36078.979115
 20
22462.0235
 30
0.0
 11
36239.459115
 21
22462.0235
 31
0.0
  0
ARC
  5
8C7
  8
0
  6
CONTINUOUS
 62
     7
 10
36564.499115
 20
22222.9835
 30
0.0
 40
247.6568
 50
107.346
 51
153.043
  0
ARC
  5
8C8
  8
0
  6
CONTINUOUS
 62
     7
 10
36591.219115
 20
22228.8235
 30
0.0
 40
99.4976
 50
14.6894
 51
164.799
  0
ARC
  5
8C9
  8
0
  6
CONTINUOUS
 62
     7
 10
36591.219115
 20
22136.9835
 30
0.0
 40
337.7128
 50
72.7367
 51
107.323
  0
ARC
  5
8CA
  8
0
  6
CONTINUOUS
 62
     7
 10
36617.939115
 20
22222.9835
 30
0.0
 40
247.6552
 50
27.0618
 51
72.7366
  0
ENDSEC
  0
EOF
