  0
SECTION
  2
HEADER
  9
$ACADVER
  1
AC1012
  9
$DWGCODEPAGE
  3
dos932
  9
$INSBASE
 10
0.0
 20
0.0
 30
0.0
  9
$EXTMIN
 10
2696.86289
 20
-591.714848
 30
0.0
  9
$EXTMAX
 10
36919.379243
 20
27365.869066
 30
0.0
  9
$LIMMIN
 10
-11267.476697
 20
-16701.858697
  9
$LIMMAX
 10
28669.111957
 20
11389.003653
  9
$ORTHOMODE
 70
     0
  9
$REGENMODE
 70
     1
  9
$FILLMODE
 70
     1
  9
$QTEXTMODE
 70
     0
  9
$MIRRTEXT
 70
     0
  9
$DRAGMODE
 70
     2
  9
$LTSCALE
 40
500.0
  9
$OSMODE
 70
     0
  9
$ATTMODE
 70
     1
  9
$TEXTSIZE
 40
600.0
  9
$TRACEWID
 40
0.05
  9
$TEXTSTYLE
  7
STANDARD
  9
$CLAYER
  8
0
  9
$CELTYPE
  6
BYLAYER
  9
$CECOLOR
 62
   256
  9
$CELTSCALE
 40
1.0
  9
$DELOBJ
 70
     1
  9
$DISPSILH
 70
     0
  9
$DIMSCALE
 40
1.0
  9
$DIMASZ
 40
200.0
  9
$DIMEXO
 40
100.0
  9
$DIMDLI
 40
200.0
  9
$DIMRND
 40
1.0
  9
$DIMDLE
 40
0.0
  9
$DIMEXE
 40
100.0
  9
$DIMTP
 40
0.0
  9
$DIMTM
 40
0.0
  9
$DIMTXT
 40
500.0
  9
$DIMCEN
 40
0.0
  9
$DIMTSZ
 40
0.0
  9
$DIMTOL
 70
     0
  9
$DIMLIM
 70
     0
  9
$DIMTIH
 70
     0
  9
$DIMTOH
 70
     0
  9
$DIMSE1
 70
     0
  9
$DIMSE2
 70
     0
  9
$DIMTAD
 70
     1
  9
$DIMZIN
 70
     8
  9
$DIMBLK
  1

  9
$DIMASO
 70
     1
  9
$DIMSHO
 70
     1
  9
$DIMPOST
  1

  9
$DIMAPOST
  1

  9
$DIMALT
 70
     0
  9
$DIMALTD
 70
     2
  9
$DIMALTF
 40
25.4
  9
$DIMLFAC
 40
1.0
  9
$DIMTOFL
 70
     0
  9
$DIMTVP
 40
0.0
  9
$DIMTIX
 70
     0
  9
$DIMSOXD
 70
     0
  9
$DIMSAH
 70
     0
  9
$DIMBLK1
  1

  9
$DIMBLK2
  1

  9
$DIMSTYLE
  2
CADLOG
  9
$DIMCLRD
 70
     0
  9
$DIMCLRE
 70
     0
  9
$DIMCLRT
 70
     0
  9
$DIMTFAC
 40
1.0
  9
$DIMGAP
 40
0.0
  9
$DIMJUST
 70
     0
  9
$DIMSD1
 70
     0
  9
$DIMSD2
 70
     0
  9
$DIMTOLJ
 70
     1
  9
$DIMTZIN
 70
     8
  9
$DIMALTZ
 70
     8
  9
$DIMALTTZ
 70
     8
  9
$DIMFIT
 70
     5
  9
$DIMUPT
 70
     0
  9
$DIMUNIT
 70
     2
  9
$DIMDEC
 70
     2
  9
$DIMTDEC
 70
     2
  9
$DIMALTU
 70
     2
  9
$DIMALTTD
 70
     2
  9
$DIMTXSTY
  7
STANDARD
  9
$DIMAUNIT
 70
     0
  9
$LUNITS
 70
     2
  9
$LUPREC
 70
     2
  9
$SKETCHINC
 40
0.1
  9
$FILLETRAD
 40
0.0
  9
$AUNITS
 70
     0
  9
$AUPREC
 70
     1
  9
$MENU
  1
CADLOG
  9
$ELEVATION
 40
0.0
  9
$PELEVATION
 40
0.0
  9
$THICKNESS
 40
0.0
  9
$LIMCHECK
 70
     0
  9
$BLIPMODE
 70
     1
  9
$CHAMFERA
 40
0.0
  9
$CHAMFERB
 40
0.0
  9
$CHAMFERC
 40
0.0
  9
$CHAMFERD
 40
0.0
  9
$SKPOLY
 70
     0
  9
$TDCREATE
 40
2451816.659693287
  9
$TDUPDATE
 40
2451816.659693287
  9
$TDINDWG
 40
0.0000000000
  9
$TDUSRTIMER
 40
0.0000000000
  9
$USRTIMER
 70
     1
  9
$ANGBASE
 50
0.0
  9
$ANGDIR
 70
     0
  9
$PDMODE
 70
    35
  9
$PDSIZE
 40
-3.0
  9
$PLINEWID
 40
0.0
  9
$COORDS
 70
     1
  9
$SPLFRAME
 70
     0
  9
$SPLINETYPE
 70
     6
  9
$SPLINESEGS
 70
     8
  9
$ATTDIA
 70
     0
  9
$ATTREQ
 70
     1
  9
$HANDLING
 70
     1
  9
$HANDSEED
  5
CA9
  9
$SURFTAB1
 70
     6
  9
$SURFTAB2
 70
     6
  9
$SURFTYPE
 70
     6
  9
$SURFU
 70
     6
  9
$SURFV
 70
     6
  9
$UCSNAME
  2

  9
$UCSORG
 10
0.0
 20
0.0
 30
0.0
  9
$UCSXDIR
 10
1.0
 20
0.0
 30
0.0
  9
$UCSYDIR
 10
0.0
 20
1.0
 30
0.0
  9
$PUCSNAME
  2

  9
$PUCSORG
 10
0.0
 20
0.0
 30
0.0
  9
$PUCSXDIR
 10
1.0
 20
0.0
 30
0.0
  9
$PUCSYDIR
 10
0.0
 20
1.0
 30
0.0
  9
$USERI1
 70
     0
  9
$USERI2
 70
     0
  9
$USERI3
 70
     0
  9
$USERI4
 70
     0
  9
$USERI5
 70
     0
  9
$USERR1
 40
0.0
  9
$USERR2
 40
0.0
  9
$USERR3
 40
0.0
  9
$USERR4
 40
0.0
  9
$USERR5
 40
0.0
  9
$WORLDVIEW
 70
     1
  9
$SHADEDGE
 70
     3
  9
$SHADEDIF
 70
    70
  9
$TILEMODE
 70
     1
  9
$MAXACTVP
 70
    16
  9
$PINSBASE
 10
0.0
 20
0.0
 30
0.0
  9
$PLIMCHECK
 70
     0
  9
$PEXTMIN
 10
1.000000E+20
 20
1.000000E+20
 30
1.000000E+20
  9
$PEXTMAX
 10
-1.000000E+20
 20
-1.000000E+20
 30
-1.000000E+20
  9
$PLIMMIN
 10
0.0
 20
0.0
  9
$PLIMMAX
 10
12.0
 20
9.0
  9
$UNITMODE
 70
     0
  9
$VISRETAIN
 70
     0
  9
$PLINEGEN
 70
     0
  9
$PSLTSCALE
 70
     1
  9
$TREEDEPTH
 70
  3020
  9
$PICKSTYLE
 70
     1
  9
$CMLSTYLE
  2
STANDARD
  9
$CMLJUST
 70
     0
  9
$CMLSCALE
 40
1.0
  9
$SAVEIMAGES
 70
     1
  0
ENDSEC
  0
SECTION
  2
CLASSES
  0
CLASS
  1
DICTIONARYVAR
  2
AcDbDictionaryVar
  3
"AutoCAD"
 90
    32768
280
     0
281
     0
  0
CLASS
  1
LWPOLYLINE
  2
AcDbPolyline
  3
"AutoCAD"
 90
    32768
280
     0
281
     1
  0
ENDSEC
  0
SECTION
  2
TABLES
  0
TABLE
  2
VPORT
  5
C1E
100
AcDbSymbolTable
 70
     2
  0
VPORT
  5
CA8
100
AcDbSymbolTableRecord
100
AcDbViewportTableRecord
  2
*ACTIVE
 70
     0
 10
0.0
 20
0.0
 11
1.0
 21
1.0
 12
19808.304856
 22
13387.598842
 13
0.0
 23
0.0
 14
500.0
 24
500.0
 15
0.0
 25
0.0
 16
0.0
 26
0.0
 36
1.0
 17
0.0
 27
0.0
 37
0.0
 40
28293.164778
 41
1.765267
 42
50.0
 43
0.0
 44
0.0
 50
0.0
 51
0.0
 71
     0
 72
   100
 73
     1
 74
     1
 75
     0
 76
     0
 77
     0
 78
     0
  0
ENDTAB
  0
TABLE
  2
LTYPE
  5
C1B
100
AcDbSymbolTable
 70
     3
  0
LTYPE
  5
C27
100
AcDbSymbolTableRecord
100
AcDbLinetypeTableRecord
  2
BYBLOCK
 70
     0
  3

 72
    65
 73
     0
 40
0.0
  0
LTYPE
  5
C28
100
AcDbSymbolTableRecord
100
AcDbLinetypeTableRecord
  2
BYLAYER
 70
     0
  3

 72
    65
 73
     0
 40
0.0
  0
LTYPE
  5
C29
100
AcDbSymbolTableRecord
100
AcDbLinetypeTableRecord
  2
CONTINUOUS
 70
     0
  3
Solid line
 72
    65
 73
     0
 40
0.0
  0
LTYPE
  5
C33
100
AcDbSymbolTableRecord
100
AcDbLinetypeTableRecord
  2
CENTER
 70
     0
  3
CENTER
 72
    65
 73
     4
 40
2.0
 49
1.25
 74
     0
 49
-0.25
 74
     0
 49
0.25
 74
     0
 49
-0.25
 74
     0
  0
LTYPE
  5
C34
100
AcDbSymbolTableRecord
100
AcDbLinetypeTableRecord
  2
PHANTOM
 70
     0
  3
PHANTOM
 72
    65
 73
     6
 40
2.5
 49
1.25
 74
     0
 49
-0.25
 74
     0
 49
0.25
 74
     0
 49
-0.25
 74
     0
 49
0.25
 74
     0
 49
-0.25
 74
     0
  0
ENDTAB
  0
TABLE
  2
LAYER
  5
C18
100
AcDbSymbolTable
 70
     8
  0
LAYER
  5
C24
100
AcDbSymbolTableRecord
100
AcDbLayerTableRecord
  2
0
 70
     0
 62
     7
  6
CONTINUOUS
  0
LAYER
  5
C38
100
AcDbSymbolTableRecord
100
AcDbLayerTableRecord
  2
LJIB
 70
     0
 62
     2
  6
CONTINUOUS
  0
LAYER
  5
C39
100
AcDbSymbolTableRecord
100
AcDbLayerTableRecord
  2
EXTLJ
 70
     0
 62
     2
  6
CONTINUOUS
  0
LAYER
  5
C3A
100
AcDbSymbolTableRecord
100
AcDbLayerTableRecord
  2
EXSUPORT
 70
     0
 62
     2
  6
CONTINUOUS
  0
LAYER
  5
C3B
100
AcDbSymbolTableRecord
100
AcDbLayerTableRecord
  2
HOOK
 70
     0
 62
     6
  6
CONTINUOUS
  0
LAYER
  5
C3C
100
AcDbSymbolTableRecord
100
AcDbLayerTableRecord
  2
SUPORT
 70
     0
 62
     2
  6
CONTINUOUS
  0
LAYER
  5
C3D
100
AcDbSymbolTableRecord
100
AcDbLayerTableRecord
  2
SUPORT1
 70
     0
 62
     2
  6
CONTINUOUS
  0
LAYER
  5
C3E
100
AcDbSymbolTableRecord
100
AcDbLayerTableRecord
  2
点
 70
     0
 62
     1
  6
CONTINUOUS
  0
ENDTAB
  0
TABLE
  2
STYLE
  5
C19
100
AcDbSymbolTable
 70
     2
  0
STYLE
  5
C25
100
AcDbSymbolTableRecord
100
AcDbTextStyleTableRecord
  2
STANDARD
 70
     0
 40
0.0
 41
1.0
 50
0.0
 71
     0
 42
600.0
  3
txt
  4

  0
STYLE
  5
C32
100
AcDbSymbolTableRecord
100
AcDbTextStyleTableRecord
  2
EXTFONT
 70
     0
 40
0.0
 41
1.0
 50
0.0
 71
     0
 42
700.0
  3
txt.shx
  4
EXTFONT.SHX
  0
ENDTAB
  0
TABLE
  2
VIEW
  5
C1C
100
AcDbSymbolTable
 70
     0
  0
ENDTAB
  0
TABLE
  2
UCS
  5
C1D
100
AcDbSymbolTable
 70
     0
  0
ENDTAB
  0
TABLE
  2
APPID
  5
C1F
100
AcDbSymbolTable
 70
     1
  0
APPID
  5
C26
100
AcDbSymbolTableRecord
100
AcDbRegAppTableRecord
  2
ACAD
 70
     0
  0
ENDTAB
  0
TABLE
  2
DIMSTYLE
  5
C20
100
AcDbSymbolTable
 70
     2
  0
DIMSTYLE
105
C36
100
AcDbSymbolTableRecord
100
AcDbDimStyleTableRecord
  2
CADLOG
 70
     0
  3

  4

  5

  6

  7

 40
1.0
 41
200.0
 42
100.0
 43
200.0
 44
100.0
 45
1.0
 46
0.0
 47
0.0
 48
0.0
140
500.0
141
0.0
142
0.0
143
25.4
144
1.0
145
0.0
146
1.0
147
0.0
 71
     0
 72
     0
 73
     0
 74
     0
 75
     0
 76
     0
 77
     1
 78
     8
170
     0
171
     2
172
     0
173
     0
174
     0
175
     0
176
     0
177
     0
178
     0
270
     2
271
     2
272
     2
273
     2
274
     2
340
C25
275
     0
280
     0
281
     0
282
     0
283
     1
284
     8
285
     8
286
     8
287
     5
288
     0
  0
DIMSTYLE
105
C37
100
AcDbSymbolTableRecord
100
AcDbDimStyleTableRecord
  2
STANDARD
 70
     0
  3

  4

  5

  6

  7

 40
1.0
 41
0.18
 42
0.0625
 43
0.38
 44
0.18
 45
0.0
 46
0.0
 47
0.0
 48
0.0
140
0.18
141
0.09
142
0.0
143
25.4
144
1.0
145
0.0
146
1.0
147
0.09
 71
     0
 72
     0
 73
     1
 74
     1
 75
     0
 76
     0
 77
     0
 78
     0
170
     0
171
     2
172
     0
173
     0
174
     0
175
     0
176
     0
177
     0
178
     0
270
     2
271
     2
272
     2
273
     2
274
     2
340
C25
275
     0
280
     0
281
     0
282
     0
283
     1
284
     8
285
     8
286
     8
287
     5
288
     0
  0
ENDTAB
  0
TABLE
  2
BLOCK_RECORD
  5
C17
100
AcDbSymbolTable
 70
     0
  0
BLOCK_RECORD
  5
C2D
100
AcDbSymbolTableRecord
100
AcDbBlockTableRecord
  2
*MODEL_SPACE
  0
BLOCK_RECORD
  5
C2A
100
AcDbSymbolTableRecord
100
AcDbBlockTableRecord
  2
*PAPER_SPACE
  0
ENDTAB
  0
ENDSEC
  0
SECTION
  2
BLOCKS
  0
BLOCK
  5
C41
100
AcDbEntity
  8
0
100
AcDbBlockBegin
  2
*MODEL_SPACE
 70
     0
 10
0.0
 20
0.0
 30
0.0
  3
*MODEL_SPACE
  1

  0
ENDBLK
  5
C42
100
AcDbEntity
  8
0
100
AcDbBlockEnd
  0
BLOCK
  5
C3F
100
AcDbEntity
 67
     1
  8
0
100
AcDbBlockBegin
  2
*PAPER_SPACE
 70
     0
 10
0.0
 20
0.0
 30
0.0
  3
*PAPER_SPACE
  1

  0
ENDBLK
  5
C40
100
AcDbEntity
 67
     1
  8
0
100
AcDbBlockEnd
  0
ENDSEC
  0
SECTION
  2
ENTITIES
  0
TEXT
  5
2C
100
AcDbEntity
  8
0
100
AcDbText
 10
4489.887625
 20
26565.869066
 30
0.0
 40
800.0
  1
B112121
100
AcDbText
  0
TEXT
  5
2D
100
AcDbEntity
  8
0
100
AcDbText
 10
14243.631691
 20
26565.869066
 30
0.0
 40
800.0
  1
B110122
100
AcDbText
  0
TEXT
  5
2E
100
AcDbEntity
  8
0
100
AcDbText
 10
27837.431897
 20
26335.616091
 30
0.0
 40
800.0
  1
B110123
100
AcDbText
  0
TEXT
  5
2F
100
AcDbEntity
  8
0
100
AcDbText
 10
4554.253768
 20
16316.90757
 30
0.0
 40
800.0
  1
B110124
100
AcDbText
  0
TEXT
  5
30
100
AcDbEntity
  8
0
100
AcDbText
 10
15549.250801
 20
16357.987372
 30
0.0
 40
800.0
  1
B110125
100
AcDbText
  0
TEXT
  5
31
100
AcDbEntity
  8
0
100
AcDbText
 10
26816.124812
 20
20001.579978
 30
0.0
 40
800.0
  1
B110126
100
AcDbText
  0
TEXT
  5
32
100
AcDbEntity
  8
0
100
AcDbText
 10
26365.329083
 20
1121.243347
 30
0.0
 40
560.0
  1
AR200220B
  7
EXTFONT
100
AcDbText
  0
TEXT
  5
33
100
AcDbEntity
  8
0
100
AcDbText
 10
26198.694742
 20
288.615539
 30
0.0
 40
560.0
  1
AR-2000M-2
  7
EXTFONT
100
AcDbText
  0
TEXT
  5
34
100
AcDbEntity
  8
0
100
AcDbText
 10
26254.239492
 20
-507.006557
 30
0.0
 40
560.0
  1
ラフィングジブ
  7
EXTFONT
100
AcDbText
  0
LINE
  5
35
100
AcDbEntity
  8
0
100
AcDbLine
 10
21647.618131
 20
-591.714848
 30
0.0
 11
33647.618131
 21
-591.714848
 31
0.0
  0
LINE
  5
36
100
AcDbEntity
  8
0
100
AcDbLine
 10
21647.618131
 20
208.285152
 30
0.0
 11
33647.618131
 21
208.285152
 31
0.0
  0
LINE
  5
37
100
AcDbEntity
  8
0
100
AcDbLine
 10
21647.618131
 20
1008.285152
 30
0.0
 11
33647.618131
 21
1008.285152
 31
0.0
  0
LINE
  5
38
100
AcDbEntity
  8
0
100
AcDbLine
 10
21647.618131
 20
1808.285152
 30
0.0
 11
33647.618131
 21
1808.285152
 31
0.0
  0
TEXT
  5
39
100
AcDbEntity
  8
0
100
AcDbText
 10
21847.686711
 20
325.621251
 30
0.0
 40
640.0
  1
機　　　種
  7
EXTFONT
100
AcDbText
  0
TEXT
  5
3A
100
AcDbEntity
  8
0
100
AcDbText
 10
21866.201689
 20
1139.746175
 30
0.0
 40
640.0
  1
ファイル名
  7
EXTFONT
100
AcDbText
  0
TEXT
  5
3B
100
AcDbEntity
  8
0
100
AcDbText
 10
21829.171825
 20
-544.012212
 30
0.0
 40
640.0
  1
スペック
  7
EXTFONT
100
AcDbText
  0
LINE
  5
3C
100
AcDbEntity
  8
0
100
AcDbLine
 10
21647.618131
 20
1808.285152
 30
0.0
 11
21647.618131
 21
-591.714848
 31
0.0
  0
LINE
  5
3D
100
AcDbEntity
  8
0
100
AcDbLine
 10
26069.090265
 20
1808.285152
 30
0.0
 11
26069.090265
 21
-591.714848
 31
0.0
  0
LINE
  5
3E
100
AcDbEntity
  8
0
100
AcDbLine
 10
33647.618131
 20
1808.285152
 30
0.0
 11
33647.618131
 21
-591.714848
 31
0.0
  0
TEXT
  5
3F
100
AcDbEntity
  8
0
100
AcDbText
 10
4335.834467
 20
8939.701609
 30
0.0
 40
800.0
  1
B110131
100
AcDbText
  0
TEXT
  5
40
100
AcDbEntity
  8
0
100
AcDbText
 10
13532.641267
 20
8880.786118
 30
0.0
 40
800.0
  1
B110132
100
AcDbText
  0
TEXT
  5
41
100
AcDbEntity
  8
0
100
AcDbText
 10
23142.12516
 20
8821.870736
 30
0.0
 40
800.0
  1
B110133
100
AcDbText
  0
TEXT
  5
42
100
AcDbEntity
  8
0
100
AcDbText
 10
31926.25469
 20
8645.124589
 30
0.0
 40
800.0
  1
B110134
100
AcDbText
  0
LINE
  5
43
100
AcDbEntity
  8
LJIB
 62
     5
100
AcDbLine
 10
34363.533786
 20
24501.327341
 30
0.0
 11
26135.533786
 21
24501.327341
 31
0.0
  0
LINE
  5
44
100
AcDbEntity
  8
LJIB
 62
     5
100
AcDbLine
 10
34619.533786
 20
24411.331341
 30
0.0
 11
25879.533786
 21
24411.331341
 31
0.0
  0
LINE
  5
45
100
AcDbEntity
  8
LJIB
 62
     5
100
AcDbLine
 10
25879.533786
 20
23501.343341
 30
0.0
 11
34619.533786
 21
23501.343341
 31
0.0
  0
LINE
  5
46
100
AcDbEntity
  8
LJIB
 62
     5
100
AcDbLine
 10
26135.533786
 20
23411.344341
 30
0.0
 11
34363.533786
 21
23411.344341
 31
0.0
  0
LINE
  5
47
100
AcDbEntity
  8
LJIB
  6
CENTER
 62
     5
100
AcDbLine
 10
25556.396072
 20
23956.335341
 30
0.0
 11
34932.389497
 21
23956.335341
 31
0.0
  0
LINE
  5
48
100
AcDbEntity
  8
LJIB
 62
     5
100
AcDbLine
 10
26337.333786
 20
23501.333341
 30
0.0
 11
26172.033786
 21
23956.327345
 31
0.0
  0
LINE
  5
49
100
AcDbEntity
  8
LJIB
  6
CENTER
 62
     5
100
AcDbLine
 10
25749.533786
 20
24551.515341
 30
0.0
 11
25749.533786
 21
23345.480341
 31
0.0
  0
LINE
  5
4A
100
AcDbEntity
  8
LJIB
 62
     5
100
AcDbLine
 10
25961.417207
 20
23501.343341
 30
0.0
 11
26291.833786
 21
24411.336341
 31
0.0
  0
LINE
  5
4B
100
AcDbEntity
  8
LJIB
 62
     5
100
AcDbLine
 10
26006.817018
 20
23501.343341
 30
0.0
 11
26337.333786
 21
24411.335341
 31
0.0
  0
LINE
  5
4C
100
AcDbEntity
  8
LJIB
 62
     5
100
AcDbLine
 10
25893.233786
 20
24411.331341
 30
0.0
 11
25893.233786
 21
23501.343341
 31
0.0
  0
LINE
  5
4D
100
AcDbEntity
  8
LJIB
 62
     5
100
AcDbLine
 10
25935.933786
 20
24411.331341
 30
0.0
 11
25935.933786
 21
23501.343341
 31
0.0
  0
LINE
  5
4E
100
AcDbEntity
  8
LJIB
 62
     5
100
AcDbLine
 10
25885.533786
 20
23406.344341
 30
0.0
 11
26135.533786
 21
23406.344341
 31
0.0
  0
LINE
  5
4F
100
AcDbEntity
  8
LJIB
 62
     5
100
AcDbLine
 10
25879.533786
 20
23411.344341
 30
0.0
 11
25885.533786
 21
23411.344341
 31
0.0
  0
LINE
  5
50
100
AcDbEntity
  8
LJIB
 62
     5
100
AcDbLine
 10
25829.533786
 20
23403.844341
 30
0.0
 11
25879.533786
 21
23403.844341
 31
0.0
  0
LINE
  5
51
100
AcDbEntity
  8
LJIB
 62
     5
100
AcDbLine
 10
25829.533786
 20
23508.843341
 30
0.0
 11
25879.533786
 21
23508.843341
 31
0.0
  0
LINE
  5
52
100
AcDbEntity
  8
LJIB
 62
     5
100
AcDbLine
 10
25879.533786
 20
23508.843341
 30
0.0
 11
25879.533786
 21
23403.844341
 31
0.0
  0
LINE
  5
53
100
AcDbEntity
  8
LJIB
 62
     5
100
AcDbLine
 10
25829.533786
 20
23508.843341
 30
0.0
 11
25829.533786
 21
23403.844341
 31
0.0
  0
CIRCLE
  5
54
100
AcDbEntity
  8
LJIB
 62
     5
100
AcDbCircle
 10
25749.533786
 20
23456.343341
 30
0.0
 40
30.0
  0
LINE
  5
55
100
AcDbEntity
  8
LJIB
 62
     5
100
AcDbLine
 10
25885.533786
 20
23411.344341
 30
0.0
 11
25885.533786
 21
23406.344341
 31
0.0
  0
LINE
  5
56
100
AcDbEntity
  8
LJIB
 62
     5
100
AcDbLine
 10
25829.533786
 20
23508.845341
 30
0.0
 11
25758.133786
 21
23518.746341
 31
0.0
  0
ARC
  5
57
100
AcDbEntity
  8
LJIB
 62
     5
100
AcDbCircle
 10
25749.533786
 20
23456.349341
 30
0.0
 40
63.0001
100
AcDbArc
 50
82.097022
 51
277.902903
  0
LINE
  5
58
100
AcDbEntity
  8
LJIB
 62
     5
100
AcDbLine
 10
25829.533786
 20
23403.844341
 30
0.0
 11
25758.133786
 21
23393.943341
 31
0.0
  0
LINE
  5
59
100
AcDbEntity
  8
LJIB
 62
     5
100
AcDbLine
 10
26291.933786
 20
23501.332341
 30
0.0
 11
26149.333786
 21
23893.788141
 31
0.0
  0
LINE
  5
5A
100
AcDbEntity
  8
LJIB
 62
     5
100
AcDbLine
 10
26135.533786
 20
23411.344341
 30
0.0
 11
26135.533786
 21
23406.344341
 31
0.0
  0
LINE
  5
5B
100
AcDbEntity
  8
LJIB
 62
     5
100
AcDbLine
 10
26135.533786
 20
24506.327341
 30
0.0
 11
25885.533786
 21
24506.327341
 31
0.0
  0
LINE
  5
5C
100
AcDbEntity
  8
LJIB
 62
     5
100
AcDbLine
 10
25916.433786
 20
24608.428341
 30
0.0
 11
26199.533786
 21
24507.331341
 31
0.0
  0
LINE
  5
5D
100
AcDbEntity
  8
LJIB
 62
     5
100
AcDbLine
 10
25885.533786
 20
24506.327341
 30
0.0
 11
25885.533786
 21
24501.327341
 31
0.0
  0
LINE
  5
5E
100
AcDbEntity
  8
LJIB
 62
     5
100
AcDbLine
 10
25829.533786
 20
24508.831341
 30
0.0
 11
25879.533786
 21
24508.831341
 31
0.0
  0
LINE
  5
5F
100
AcDbEntity
  8
LJIB
 62
     5
100
AcDbLine
 10
25885.533786
 20
24501.327341
 30
0.0
 11
25879.533786
 21
24501.327341
 31
0.0
  0
ARC
  5
60
100
AcDbEntity
  8
LJIB
 62
     5
100
AcDbCircle
 10
25899.533786
 20
24561.336341
 30
0.0
 40
49.9999
100
AcDbArc
 50
70.353774
 51
180.799009
  0
CIRCLE
  5
61
100
AcDbEntity
  8
LJIB
 62
     5
100
AcDbCircle
 10
25899.533786
 20
24561.336341
 30
0.0
 40
35.0
  0
LINE
  5
62
100
AcDbEntity
  8
LJIB
 62
     5
100
AcDbLine
 10
25849.533786
 20
24562.032341
 30
0.0
 11
25849.533786
 21
24508.836341
 31
0.0
  0
LINE
  5
63
100
AcDbEntity
  8
LJIB
 62
     5
100
AcDbLine
 10
25879.533786
 20
24508.831341
 30
0.0
 11
25879.533786
 21
24403.835341
 31
0.0
  0
LINE
  5
64
100
AcDbEntity
  8
LJIB
 62
     5
100
AcDbLine
 10
25829.533786
 20
24508.831341
 30
0.0
 11
25829.533786
 21
24403.835341
 31
0.0
  0
LINE
  5
65
100
AcDbEntity
  8
LJIB
 62
     5
100
AcDbLine
 10
25885.533786
 20
24411.331341
 30
0.0
 11
25885.533786
 21
24406.331341
 31
0.0
  0
LINE
  5
66
100
AcDbEntity
  8
LJIB
 62
     5
100
AcDbLine
 10
25829.533786
 20
24403.835341
 30
0.0
 11
25879.533786
 21
24403.835341
 31
0.0
  0
CIRCLE
  5
67
100
AcDbEntity
  8
LJIB
 62
     5
100
AcDbCircle
 10
25749.533786
 20
24456.335341
 30
0.0
 40
30.0
  0
LINE
  5
68
100
AcDbEntity
  8
LJIB
 62
     5
100
AcDbLine
 10
25829.533786
 20
24508.836341
 30
0.0
 11
25758.133786
 21
24518.737341
 31
0.0
  0
ARC
  5
69
100
AcDbEntity
  8
LJIB
 62
     5
100
AcDbCircle
 10
25749.533786
 20
24456.340341
 30
0.0
 40
63.0001
100
AcDbArc
 50
82.097022
 51
277.902903
  0
LINE
  5
6A
100
AcDbEntity
  8
LJIB
 62
     5
100
AcDbLine
 10
25829.533786
 20
24403.835341
 30
0.0
 11
25758.133786
 21
24393.934341
 31
0.0
  0
LINE
  5
6B
100
AcDbEntity
  8
LJIB
 62
     5
100
AcDbLine
 10
26135.533786
 20
24506.327341
 30
0.0
 11
26135.533786
 21
24501.327341
 31
0.0
  0
LINE
  5
6C
100
AcDbEntity
  8
LJIB
 62
     5
100
AcDbLine
 10
26199.533786
 20
24507.331341
 30
0.0
 11
26199.533786
 21
24501.327341
 31
0.0
  0
LINE
  5
6D
100
AcDbEntity
  8
LJIB
 62
     5
100
AcDbLine
 10
26126.633786
 20
23956.329903
 30
0.0
 11
25961.415299
 21
24411.331341
 31
0.0
  0
LINE
  5
6E
100
AcDbEntity
  8
LJIB
 62
     5
100
AcDbLine
 10
26149.333786
 20
24018.869141
 30
0.0
 11
26006.815551
 21
24411.331341
 31
0.0
  0
LINE
  5
6F
100
AcDbEntity
  8
LJIB
 62
     5
100
AcDbLine
 10
34327.133786
 20
23956.338635
 30
0.0
 11
34161.833786
 21
23501.345341
 31
0.0
  0
LINE
  5
70
100
AcDbEntity
  8
LJIB
  6
CENTER
 62
     5
100
AcDbLine
 10
34749.533786
 20
24551.515341
 30
0.0
 11
34749.533786
 21
23345.480341
 31
0.0
  0
LINE
  5
71
100
AcDbEntity
  8
LJIB
 62
     5
100
AcDbLine
 10
34161.833786
 20
24411.327341
 30
0.0
 11
34492.34911
 21
23501.343341
 31
0.0
  0
LINE
  5
72
100
AcDbEntity
  8
LJIB
 62
     5
100
AcDbLine
 10
34207.333786
 20
24411.327341
 30
0.0
 11
34537.748558
 21
23501.343341
 31
0.0
  0
LINE
  5
73
100
AcDbEntity
  8
LJIB
 62
     5
100
AcDbLine
 10
34563.233786
 20
23501.343341
 30
0.0
 11
34563.233786
 21
24411.331341
 31
0.0
  0
LINE
  5
74
100
AcDbEntity
  8
LJIB
 62
     5
100
AcDbLine
 10
34605.933786
 20
23501.343341
 30
0.0
 11
34605.933786
 21
24411.331341
 31
0.0
  0
LINE
  5
75
100
AcDbEntity
  8
LJIB
 62
     5
100
AcDbLine
 10
34363.533786
 20
23406.344341
 30
0.0
 11
34613.533786
 21
23406.344341
 31
0.0
  0
LINE
  5
76
100
AcDbEntity
  8
LJIB
 62
     5
100
AcDbLine
 10
34349.833786
 20
23893.796841
 30
0.0
 11
34207.333786
 21
23501.345341
 31
0.0
  0
LINE
  5
77
100
AcDbEntity
  8
LJIB
 62
     5
100
AcDbLine
 10
34363.533786
 20
23406.344341
 30
0.0
 11
34363.533786
 21
23411.344341
 31
0.0
  0
LINE
  5
78
100
AcDbEntity
  8
LJIB
 62
     5
100
AcDbLine
 10
34619.533786
 20
23403.844341
 30
0.0
 11
34669.533786
 21
23403.844341
 31
0.0
  0
LINE
  5
79
100
AcDbEntity
  8
LJIB
 62
     5
100
AcDbLine
 10
34619.533786
 20
23508.843341
 30
0.0
 11
34669.533786
 21
23508.843341
 31
0.0
  0
LINE
  5
7A
100
AcDbEntity
  8
LJIB
 62
     5
100
AcDbLine
 10
34619.533786
 20
23403.844341
 30
0.0
 11
34619.533786
 21
23508.843341
 31
0.0
  0
LINE
  5
7B
100
AcDbEntity
  8
LJIB
 62
     5
100
AcDbLine
 10
34613.533786
 20
23411.344341
 30
0.0
 11
34619.533786
 21
23411.344341
 31
0.0
  0
CIRCLE
  5
7C
100
AcDbEntity
  8
LJIB
 62
     5
100
AcDbCircle
 10
34749.533786
 20
23456.338341
 30
0.0
 40
30.0
  0
LINE
  5
7D
100
AcDbEntity
  8
LJIB
 62
     5
100
AcDbLine
 10
34669.533786
 20
23508.837341
 30
0.0
 11
34740.933786
 21
23518.739341
 31
0.0
  0
LINE
  5
7E
100
AcDbEntity
  8
LJIB
 62
     5
100
AcDbLine
 10
34669.533786
 20
23403.842341
 30
0.0
 11
34740.933786
 21
23393.940341
 31
0.0
  0
LINE
  5
7F
100
AcDbEntity
  8
LJIB
 62
     5
100
AcDbLine
 10
34669.533786
 20
23403.844341
 30
0.0
 11
34669.533786
 21
23508.843341
 31
0.0
  0
ARC
  5
80
100
AcDbEntity
  8
LJIB
 62
     5
100
AcDbCircle
 10
34749.533786
 20
23456.337341
 30
0.0
 40
63.0001
100
AcDbArc
 50
262.097022
 51
97.902903
  0
LINE
  5
81
100
AcDbEntity
  8
LJIB
 62
     5
100
AcDbLine
 10
34613.533786
 20
23406.344341
 30
0.0
 11
34613.533786
 21
23411.344341
 31
0.0
  0
LINE
  5
82
100
AcDbEntity
  8
LJIB
 62
     5
100
AcDbLine
 10
34613.533786
 20
24506.327341
 30
0.0
 11
34363.533786
 21
24506.327341
 31
0.0
  0
LINE
  5
83
100
AcDbEntity
  8
LJIB
 62
     5
100
AcDbLine
 10
34363.533786
 20
24501.327341
 30
0.0
 11
34363.533786
 21
24506.327341
 31
0.0
  0
LINE
  5
84
100
AcDbEntity
  8
LJIB
 62
     5
100
AcDbLine
 10
34492.349483
 20
24411.331341
 30
0.0
 11
34349.833786
 21
24018.876741
 31
0.0
  0
LINE
  5
85
100
AcDbEntity
  8
LJIB
 62
     5
100
AcDbLine
 10
34537.749371
 20
24411.331341
 30
0.0
 11
34372.533786
 21
23956.338647
 31
0.0
  0
CIRCLE
  5
86
100
AcDbEntity
  8
LJIB
 62
     5
100
AcDbCircle
 10
34749.533786
 20
24456.330341
 30
0.0
 40
30.0
  0
LINE
  5
87
100
AcDbEntity
  8
LJIB
 62
     5
100
AcDbLine
 10
34619.533786
 20
24403.835341
 30
0.0
 11
34619.533786
 21
24508.831341
 31
0.0
  0
LINE
  5
88
100
AcDbEntity
  8
LJIB
 62
     5
100
AcDbLine
 10
34669.533786
 20
24403.835341
 30
0.0
 11
34669.533786
 21
24508.831341
 31
0.0
  0
ARC
  5
89
100
AcDbEntity
  8
LJIB
 62
     5
100
AcDbCircle
 10
34749.533786
 20
24456.335341
 30
0.0
 40
63.0001
100
AcDbArc
 50
262.097022
 51
97.902903
  0
LINE
  5
8A
100
AcDbEntity
  8
LJIB
 62
     5
100
AcDbLine
 10
34619.533786
 20
24403.835341
 30
0.0
 11
34669.533786
 21
24403.835341
 31
0.0
  0
LINE
  5
8B
100
AcDbEntity
  8
LJIB
 62
     5
100
AcDbLine
 10
34669.533786
 20
24403.839341
 30
0.0
 11
34740.933786
 21
24393.938341
 31
0.0
  0
LINE
  5
8C
100
AcDbEntity
  8
LJIB
 62
     5
100
AcDbLine
 10
34619.533786
 20
24508.831341
 30
0.0
 11
34669.533786
 21
24508.831341
 31
0.0
  0
LINE
  5
8D
100
AcDbEntity
  8
LJIB
 62
     5
100
AcDbLine
 10
34619.533786
 20
24501.327341
 30
0.0
 11
34613.533786
 21
24501.327341
 31
0.0
  0
LINE
  5
8E
100
AcDbEntity
  8
LJIB
 62
     5
100
AcDbLine
 10
34669.533786
 20
24508.840341
 30
0.0
 11
34740.933786
 21
24518.741341
 31
0.0
  0
LINE
  5
8F
100
AcDbEntity
  8
LJIB
 62
     5
100
AcDbLine
 10
34613.533786
 20
24501.327341
 30
0.0
 11
34613.533786
 21
24506.327341
 31
0.0
  0
LINE
  5
90
100
AcDbEntity
  8
LJIB
 62
     5
100
AcDbLine
 10
22917.960443
 20
24731.580316
 30
0.0
 11
14689.960443
 21
24731.580316
 31
0.0
  0
LINE
  5
91
100
AcDbEntity
  8
LJIB
 62
     5
100
AcDbLine
 10
23173.960443
 20
24641.584316
 30
0.0
 11
14433.960443
 21
24641.584316
 31
0.0
  0
LINE
  5
92
100
AcDbEntity
  8
LJIB
 62
     5
100
AcDbLine
 10
14433.960443
 20
23731.596316
 30
0.0
 11
23173.960443
 21
23731.596316
 31
0.0
  0
LINE
  5
93
100
AcDbEntity
  8
LJIB
 62
     5
100
AcDbLine
 10
14689.960443
 20
23641.597316
 30
0.0
 11
22917.960443
 21
23641.597316
 31
0.0
  0
LINE
  5
94
100
AcDbEntity
  8
LJIB
  6
CENTER
 62
     5
100
AcDbLine
 10
14110.822728
 20
24186.588316
 30
0.0
 11
23486.816154
 21
24186.588316
 31
0.0
  0
LINE
  5
95
100
AcDbEntity
  8
LJIB
  6
CENTER
 62
     5
100
AcDbLine
 10
14303.960443
 20
24781.768316
 30
0.0
 11
14303.960443
 21
23575.733316
 31
0.0
  0
LINE
  5
96
100
AcDbEntity
  8
LJIB
 62
     5
100
AcDbLine
 10
14515.843864
 20
23731.596316
 30
0.0
 11
14846.260443
 21
24641.589316
 31
0.0
  0
LINE
  5
97
100
AcDbEntity
  8
LJIB
 62
     5
100
AcDbLine
 10
14561.243674
 20
23731.596316
 30
0.0
 11
14891.760443
 21
24641.588316
 31
0.0
  0
LINE
  5
98
100
AcDbEntity
  8
LJIB
 62
     5
100
AcDbLine
 10
14447.660443
 20
24641.584316
 30
0.0
 11
14447.660443
 21
23731.596316
 31
0.0
  0
LINE
  5
99
100
AcDbEntity
  8
LJIB
 62
     5
100
AcDbLine
 10
14490.360443
 20
24641.584316
 30
0.0
 11
14490.360443
 21
23731.596316
 31
0.0
  0
LINE
  5
9A
100
AcDbEntity
  8
LJIB
 62
     5
100
AcDbLine
 10
14681.060443
 20
24186.582878
 30
0.0
 11
14515.841956
 21
24641.584316
 31
0.0
  0
LINE
  5
9B
100
AcDbEntity
  8
LJIB
 62
     5
100
AcDbLine
 10
14703.760443
 20
24249.122116
 30
0.0
 11
14561.242207
 21
24641.584316
 31
0.0
  0
LINE
  5
9C
100
AcDbEntity
  8
LJIB
 62
     5
100
AcDbLine
 10
14439.960443
 20
23636.597316
 30
0.0
 11
14689.960443
 21
23636.597316
 31
0.0
  0
LINE
  5
9D
100
AcDbEntity
  8
LJIB
 62
     5
100
AcDbLine
 10
14433.960443
 20
23641.597316
 30
0.0
 11
14439.960443
 21
23641.597316
 31
0.0
  0
LINE
  5
9E
100
AcDbEntity
  8
LJIB
 62
     5
100
AcDbLine
 10
14383.960443
 20
23634.097316
 30
0.0
 11
14433.960443
 21
23634.097316
 31
0.0
  0
LINE
  5
9F
100
AcDbEntity
  8
LJIB
 62
     5
100
AcDbLine
 10
14383.960443
 20
23739.096316
 30
0.0
 11
14433.960443
 21
23739.096316
 31
0.0
  0
LINE
  5
A0
100
AcDbEntity
  8
LJIB
 62
     5
100
AcDbLine
 10
14433.960443
 20
23739.096316
 30
0.0
 11
14433.960443
 21
23634.097316
 31
0.0
  0
LINE
  5
A1
100
AcDbEntity
  8
LJIB
 62
     5
100
AcDbLine
 10
14383.960443
 20
23739.096316
 30
0.0
 11
14383.960443
 21
23634.097316
 31
0.0
  0
CIRCLE
  5
A2
100
AcDbEntity
  8
LJIB
 62
     5
100
AcDbCircle
 10
14303.960443
 20
23686.596316
 30
0.0
 40
30.0
  0
LINE
  5
A3
100
AcDbEntity
  8
LJIB
 62
     5
100
AcDbLine
 10
14439.960443
 20
23641.597316
 30
0.0
 11
14439.960443
 21
23636.597316
 31
0.0
  0
LINE
  5
A4
100
AcDbEntity
  8
LJIB
 62
     5
100
AcDbLine
 10
14383.960443
 20
23739.098316
 30
0.0
 11
14312.560443
 21
23748.999316
 31
0.0
  0
ARC
  5
A5
100
AcDbEntity
  8
LJIB
 62
     5
100
AcDbCircle
 10
14303.960443
 20
23686.602316
 30
0.0
 40
63.0001
100
AcDbArc
 50
82.097022
 51
277.902903
  0
LINE
  5
A6
100
AcDbEntity
  8
LJIB
 62
     5
100
AcDbLine
 10
14383.960443
 20
23634.097316
 30
0.0
 11
14312.560443
 21
23624.196316
 31
0.0
  0
LINE
  5
A7
100
AcDbEntity
  8
LJIB
 62
     5
100
AcDbLine
 10
14846.360443
 20
23731.585316
 30
0.0
 11
14703.760443
 21
24124.041116
 31
0.0
  0
LINE
  5
A8
100
AcDbEntity
  8
LJIB
 62
     5
100
AcDbLine
 10
14891.760443
 20
23731.586316
 30
0.0
 11
14726.460443
 21
24186.58032
 31
0.0
  0
LINE
  5
A9
100
AcDbEntity
  8
LJIB
 62
     5
100
AcDbLine
 10
14689.960443
 20
23641.597316
 30
0.0
 11
14689.960443
 21
23636.597316
 31
0.0
  0
LINE
  5
AA
100
AcDbEntity
  8
LJIB
 62
     5
100
AcDbLine
 10
14689.960443
 20
24736.580316
 30
0.0
 11
14439.960443
 21
24736.580316
 31
0.0
  0
LINE
  5
AB
100
AcDbEntity
  8
LJIB
 62
     5
100
AcDbLine
 10
14433.960443
 20
24739.084316
 30
0.0
 11
14433.960443
 21
24634.088316
 31
0.0
  0
LINE
  5
AC
100
AcDbEntity
  8
LJIB
 62
     5
100
AcDbLine
 10
14383.960443
 20
24739.084316
 30
0.0
 11
14383.960443
 21
24634.088316
 31
0.0
  0
LINE
  5
AD
100
AcDbEntity
  8
LJIB
 62
     5
100
AcDbLine
 10
14439.960443
 20
24641.584316
 30
0.0
 11
14439.960443
 21
24636.584316
 31
0.0
  0
LINE
  5
AE
100
AcDbEntity
  8
LJIB
 62
     5
100
AcDbLine
 10
14383.960443
 20
24634.088316
 30
0.0
 11
14433.960443
 21
24634.088316
 31
0.0
  0
LINE
  5
AF
100
AcDbEntity
  8
LJIB
 62
     5
100
AcDbLine
 10
14439.960443
 20
24731.580316
 30
0.0
 11
14433.960443
 21
24731.580316
 31
0.0
  0
LINE
  5
B0
100
AcDbEntity
  8
LJIB
 62
     5
100
AcDbLine
 10
14383.960443
 20
24739.084316
 30
0.0
 11
14433.960443
 21
24739.084316
 31
0.0
  0
LINE
  5
B1
100
AcDbEntity
  8
LJIB
 62
     5
100
AcDbLine
 10
14439.960443
 20
24736.580316
 30
0.0
 11
14439.960443
 21
24731.580316
 31
0.0
  0
CIRCLE
  5
B2
100
AcDbEntity
  8
LJIB
 62
     5
100
AcDbCircle
 10
14303.960443
 20
24686.588316
 30
0.0
 40
30.0
  0
LINE
  5
B3
100
AcDbEntity
  8
LJIB
 62
     5
100
AcDbLine
 10
14383.960443
 20
24739.089316
 30
0.0
 11
14312.560443
 21
24748.990316
 31
0.0
  0
ARC
  5
B4
100
AcDbEntity
  8
LJIB
 62
     5
100
AcDbCircle
 10
14303.960443
 20
24686.593316
 30
0.0
 40
63.0001
100
AcDbArc
 50
82.097022
 51
277.902903
  0
LINE
  5
B5
100
AcDbEntity
  8
LJIB
 62
     5
100
AcDbLine
 10
14383.960443
 20
24634.088316
 30
0.0
 11
14312.560443
 21
24624.187316
 31
0.0
  0
LINE
  5
B6
100
AcDbEntity
  8
LJIB
 62
     5
100
AcDbLine
 10
14689.960443
 20
24736.580316
 30
0.0
 11
14689.960443
 21
24731.580316
 31
0.0
  0
LINE
  5
B7
100
AcDbEntity
  8
LJIB
  6
CENTER
 62
     5
100
AcDbLine
 10
23303.960443
 20
24781.768316
 30
0.0
 11
23303.960443
 21
23575.733316
 31
0.0
  0
LINE
  5
B8
100
AcDbEntity
  8
LJIB
 62
     5
100
AcDbLine
 10
23046.77614
 20
24641.584316
 30
0.0
 11
22904.260443
 21
24249.129716
 31
0.0
  0
LINE
  5
B9
100
AcDbEntity
  8
LJIB
 62
     5
100
AcDbLine
 10
23092.176028
 20
24641.584316
 30
0.0
 11
22926.960443
 21
24186.591622
 31
0.0
  0
LINE
  5
BA
100
AcDbEntity
  8
LJIB
 62
     5
100
AcDbLine
 10
22716.260443
 20
24641.580316
 30
0.0
 11
23046.775767
 21
23731.596316
 31
0.0
  0
LINE
  5
BB
100
AcDbEntity
  8
LJIB
 62
     5
100
AcDbLine
 10
22761.760443
 20
24641.580316
 30
0.0
 11
23092.175215
 21
23731.596316
 31
0.0
  0
LINE
  5
BC
100
AcDbEntity
  8
LJIB
 62
     5
100
AcDbLine
 10
23117.660443
 20
23731.596316
 30
0.0
 11
23117.660443
 21
24641.584316
 31
0.0
  0
LINE
  5
BD
100
AcDbEntity
  8
LJIB
 62
     5
100
AcDbLine
 10
23160.360443
 20
23731.596316
 30
0.0
 11
23160.360443
 21
24641.584316
 31
0.0
  0
LINE
  5
BE
100
AcDbEntity
  8
LJIB
 62
     5
100
AcDbLine
 10
22917.960443
 20
23636.597316
 30
0.0
 11
23167.960443
 21
23636.597316
 31
0.0
  0
LINE
  5
BF
100
AcDbEntity
  8
LJIB
 62
     5
100
AcDbLine
 10
22904.260443
 20
24124.049816
 30
0.0
 11
22761.760443
 21
23731.598316
 31
0.0
  0
LINE
  5
C0
100
AcDbEntity
  8
LJIB
 62
     5
100
AcDbLine
 10
22881.560443
 20
24186.59161
 30
0.0
 11
22716.260443
 21
23731.598316
 31
0.0
  0
LINE
  5
C1
100
AcDbEntity
  8
LJIB
 62
     5
100
AcDbLine
 10
22917.960443
 20
23636.597316
 30
0.0
 11
22917.960443
 21
23641.597316
 31
0.0
  0
LINE
  5
C2
100
AcDbEntity
  8
LJIB
 62
     5
100
AcDbLine
 10
23173.960443
 20
23634.097316
 30
0.0
 11
23223.960443
 21
23634.097316
 31
0.0
  0
LINE
  5
C3
100
AcDbEntity
  8
LJIB
 62
     5
100
AcDbLine
 10
23173.960443
 20
23739.096316
 30
0.0
 11
23223.960443
 21
23739.096316
 31
0.0
  0
LINE
  5
C4
100
AcDbEntity
  8
LJIB
 62
     5
100
AcDbLine
 10
23173.960443
 20
23634.097316
 30
0.0
 11
23173.960443
 21
23739.096316
 31
0.0
  0
LINE
  5
C5
100
AcDbEntity
  8
LJIB
 62
     5
100
AcDbLine
 10
23167.960443
 20
23641.597316
 30
0.0
 11
23173.960443
 21
23641.597316
 31
0.0
  0
CIRCLE
  5
C6
100
AcDbEntity
  8
LJIB
 62
     5
100
AcDbCircle
 10
23303.960443
 20
23686.591316
 30
0.0
 40
30.0
  0
LINE
  5
C7
100
AcDbEntity
  8
LJIB
 62
     5
100
AcDbLine
 10
23223.960443
 20
23739.090316
 30
0.0
 11
23295.360443
 21
23748.992316
 31
0.0
  0
LINE
  5
C8
100
AcDbEntity
  8
LJIB
 62
     5
100
AcDbLine
 10
23223.960443
 20
23634.095316
 30
0.0
 11
23295.360443
 21
23624.193316
 31
0.0
  0
LINE
  5
C9
100
AcDbEntity
  8
LJIB
 62
     5
100
AcDbLine
 10
23223.960443
 20
23634.097316
 30
0.0
 11
23223.960443
 21
23739.096316
 31
0.0
  0
ARC
  5
CA
100
AcDbEntity
  8
LJIB
 62
     5
100
AcDbCircle
 10
23303.960443
 20
23686.590316
 30
0.0
 40
63.0001
100
AcDbArc
 50
262.097022
 51
97.902903
  0
LINE
  5
CB
100
AcDbEntity
  8
LJIB
 62
     5
100
AcDbLine
 10
23167.960443
 20
23636.597316
 30
0.0
 11
23167.960443
 21
23641.597316
 31
0.0
  0
LINE
  5
CC
100
AcDbEntity
  8
LJIB
 62
     5
100
AcDbLine
 10
23167.960443
 20
24736.580316
 30
0.0
 11
22917.960443
 21
24736.580316
 31
0.0
  0
LINE
  5
CD
100
AcDbEntity
  8
LJIB
 62
     5
100
AcDbLine
 10
22917.960443
 20
24731.580316
 30
0.0
 11
22917.960443
 21
24736.580316
 31
0.0
  0
CIRCLE
  5
CE
100
AcDbEntity
  8
LJIB
 62
     5
100
AcDbCircle
 10
23303.960443
 20
24686.583316
 30
0.0
 40
30.0
  0
LINE
  5
CF
100
AcDbEntity
  8
LJIB
 62
     5
100
AcDbLine
 10
23173.960443
 20
24634.088316
 30
0.0
 11
23173.960443
 21
24739.084316
 31
0.0
  0
LINE
  5
D0
100
AcDbEntity
  8
LJIB
 62
     5
100
AcDbLine
 10
23223.960443
 20
24634.088316
 30
0.0
 11
23223.960443
 21
24739.084316
 31
0.0
  0
ARC
  5
D1
100
AcDbEntity
  8
LJIB
 62
     5
100
AcDbCircle
 10
23303.960443
 20
24686.588316
 30
0.0
 40
63.0001
100
AcDbArc
 50
262.097022
 51
97.902903
  0
LINE
  5
D2
100
AcDbEntity
  8
LJIB
 62
     5
100
AcDbLine
 10
23173.960443
 20
24634.088316
 30
0.0
 11
23223.960443
 21
24634.088316
 31
0.0
  0
LINE
  5
D3
100
AcDbEntity
  8
LJIB
 62
     5
100
AcDbLine
 10
23223.960443
 20
24634.092316
 30
0.0
 11
23295.360443
 21
24624.191316
 31
0.0
  0
LINE
  5
D4
100
AcDbEntity
  8
LJIB
 62
     5
100
AcDbLine
 10
23173.960443
 20
24739.084316
 30
0.0
 11
23223.960443
 21
24739.084316
 31
0.0
  0
LINE
  5
D5
100
AcDbEntity
  8
LJIB
 62
     5
100
AcDbLine
 10
23173.960443
 20
24731.580316
 30
0.0
 11
23167.960443
 21
24731.580316
 31
0.0
  0
LINE
  5
D6
100
AcDbEntity
  8
LJIB
 62
     5
100
AcDbLine
 10
23223.960443
 20
24739.093316
 30
0.0
 11
23295.360443
 21
24748.994316
 31
0.0
  0
LINE
  5
D7
100
AcDbEntity
  8
LJIB
 62
     5
100
AcDbLine
 10
23167.960443
 20
24731.580316
 30
0.0
 11
23167.960443
 21
24736.580316
 31
0.0
  0
LINE
  5
D8
100
AcDbEntity
  8
LJIB
 62
     5
100
AcDbLine
 10
3836.295639
 20
24782.226905
 30
0.0
 11
3606.265192
 21
24699.787268
 31
0.0
  0
LINE
  5
D9
100
AcDbEntity
  8
LJIB
  6
CENTER
 62
     5
100
AcDbLine
 10
3776.76289
 20
24688.136474
 30
0.0
 11
3946.26289
 21
24688.136474
 31
0.0
  0
LINE
  5
DA
100
AcDbEntity
  8
LJIB
  6
CENTER
 62
     5
100
AcDbLine
 10
2696.86289
 20
24238.140787
 30
0.0
 11
11070.770506
 21
24238.140787
 31
0.0
  0
LINE
  5
DB
100
AcDbEntity
  8
LJIB
 62
     5
100
AcDbLine
 10
3829.96289
 20
23832.181474
 30
0.0
 11
3702.96289
 21
23909.180474
 31
0.0
  0
LINE
  5
DC
100
AcDbEntity
  8
LJIB
 62
     5
100
AcDbLine
 10
3499.16289
 20
23791.493474
 30
0.0
 11
3860.26289
 21
23999.956474
 31
0.0
  0
LINE
  5
DD
100
AcDbEntity
  8
LJIB
 62
     5
100
AcDbLine
 10
3372.66289
 20
24738.142474
 30
0.0
 11
3372.66289
 21
24624.601474
 31
0.0
  0
LINE
  5
DE
100
AcDbEntity
  8
LJIB
  6
CENTER
 62
     5
100
AcDbLine
 10
3580.16289
 20
24672.375474
 30
0.0
 11
3580.16289
 21
24453.687474
 31
0.0
  0
ARC
  5
DF
100
AcDbEntity
  8
LJIB
 62
     5
100
AcDbCircle
 10
3580.16289
 20
24568.136474
 30
0.0
 40
222.5
100
AcDbArc
 50
158.839027
 51
166.115018
  0
LINE
  5
E0
100
AcDbEntity
  8
LJIB
 62
     5
100
AcDbLine
 10
3603.56289
 20
24707.327474
 30
0.0
 11
2837.36289
 21
24432.781474
 31
0.0
  0
CIRCLE
  5
E1
100
AcDbEntity
  8
LJIB
  6
CENTER
 62
     5
100
AcDbCircle
 10
3580.16289
 20
24568.136474
 30
0.0
 40
199.5
  0
ARC
  5
E2
100
AcDbEntity
  8
LJIB
 62
     5
100
AcDbCircle
 10
2850.16289
 20
24397.019474
 30
0.0
 40
37.9995
100
AcDbArc
 50
109.71099
 51
180.00002
  0
ARC
  5
E3
100
AcDbEntity
  8
LJIB
 62
     5
100
AcDbCircle
 10
2900.16289
 20
23708.137474
 30
0.0
 40
75.0007
100
AcDbArc
 50
164.180999
 51
300.567013
  0
LINE
  5
E4
100
AcDbEntity
  8
LJIB
  6
CENTER
 62
     5
100
AcDbLine
 10
2749.06289
 20
23708.137474
 30
0.0
 11
3037.76289
 21
23708.137474
 31
0.0
  0
ARC
  5
E5
100
AcDbEntity
  8
LJIB
 62
     5
100
AcDbCircle
 10
2900.16289
 20
23708.137474
 30
0.0
 40
116.0
100
AcDbArc
 50
114.464993
 51
350.272993
  0
LINE
  5
E6
100
AcDbEntity
  8
LJIB
 62
     5
100
AcDbLine
 10
2827.96289
 20
23728.588474
 30
0.0
 11
2887.06289
 21
23937.114474
 31
0.0
  0
ARC
  5
E7
100
AcDbEntity
  8
LJIB
 62
     5
100
AcDbCircle
 10
3270.16289
 20
24188.136874
 30
0.0
 40
458.0
100
AcDbArc
 50
180.00002
 51
300.000014
  0
LINE
  5
E8
100
AcDbEntity
  8
LJIB
 62
     5
100
AcDbLine
 10
2812.16289
 20
24397.019474
 30
0.0
 11
2812.16289
 21
24188.136874
 31
0.0
  0
LINE
  5
E9
100
AcDbEntity
  8
LJIB
  6
CENTER
 62
     5
100
AcDbLine
 10
3270.16289
 20
24425.580474
 30
0.0
 11
3270.16289
 21
23717.838474
 31
0.0
  0
CIRCLE
  5
EA
100
AcDbEntity
  8
LJIB
  6
CENTER
 62
     5
100
AcDbCircle
 10
3270.16289
 20
24088.140474
 30
0.0
 40
287.0
  0
LINE
  5
EB
100
AcDbEntity
  8
LJIB
  6
CENTER
 62
     5
100
AcDbLine
 10
2900.16289
 20
23838.341474
 30
0.0
 11
2900.16289
 21
23563.422474
 31
0.0
  0
CIRCLE
  5
EC
100
AcDbEntity
  8
LJIB
 62
     5
100
AcDbCircle
 10
2900.16289
 20
23708.137474
 30
0.0
 40
35.25
  0
LINE
  5
ED
100
AcDbEntity
  8
LJIB
 62
     5
100
AcDbLine
 10
2938.26289
 20
23643.559474
 30
0.0
 11
3124.96289
 21
23753.776474
 31
0.0
  0
LINE
  5
EE
100
AcDbEntity
  8
LJIB
  6
CENTER
 62
     5
100
AcDbLine
 10
2926.16289
 20
24088.140474
 30
0.0
 11
3734.96289
 21
24088.140474
 31
0.0
  0
LINE
  5
EF
100
AcDbEntity
  8
LJIB
  6
CENTER
 62
     5
100
AcDbLine
 10
3459.66289
 20
24568.136474
 30
0.0
 11
3683.86289
 21
24568.136474
 31
0.0
  0
LINE
  5
F0
100
AcDbEntity
  8
LJIB
 62
     5
100
AcDbLine
 10
3603.56289
 20
24707.327474
 30
0.0
 11
3606.265192
 21
24699.787268
 31
0.0
  0
LINE
  5
F1
100
AcDbEntity
  8
LJIB
 62
     5
100
AcDbLine
 10
3437.66289
 20
24738.142474
 30
0.0
 11
3437.66289
 21
24647.890474
 31
0.0
  0
ARC
  5
F2
100
AcDbEntity
  8
LJIB
 62
     5
100
AcDbCircle
 10
3405.16289
 20
24738.142474
 30
0.0
 40
32.4961
100
AcDbArc
 50
0.0
 51
180.00002
  0
LINE
  5
F3
100
AcDbEntity
  8
LJIB
 62
     5
100
AcDbLine
 10
10384.66289
 20
23709.127474
 30
0.0
 11
4258.16289
 21
23968.803639
 31
0.0
  0
LINE
  5
F4
100
AcDbEntity
  8
LJIB
 62
     5
100
AcDbLine
 10
10384.66289
 20
24767.136474
 30
0.0
 11
4258.16289
 21
24507.460308
 31
0.0
  0
LINE
  5
F5
100
AcDbEntity
  8
LJIB
 62
     5
100
AcDbLine
 10
10640.16289
 20
23783.226474
 30
0.0
 11
5366.26289
 21
23989.252474
 31
0.0
  0
LINE
  5
F6
100
AcDbEntity
  8
LJIB
 62
     5
100
AcDbLine
 10
10640.16289
 20
24693.036474
 30
0.0
 11
5366.26289
 21
24487.008474
 31
0.0
  0
LINE
  5
F7
100
AcDbEntity
  8
LJIB
  6
CENTER
 62
     5
100
AcDbLine
 10
3870.16289
 20
24763.007125
 30
0.0
 11
3870.16289
 21
24606.773474
 31
0.0
  0
CIRCLE
  5
F8
100
AcDbEntity
  8
LJIB
 62
     5
100
AcDbCircle
 10
3870.16289
 20
24688.136474
 30
0.0
 40
49.9999
  0
LINE
  5
F9
100
AcDbEntity
  8
LJIB
 62
     5
100
AcDbLine
 10
3929.96289
 20
24768.250474
 30
0.0
 11
4258.16289
 21
24523.137474
 31
0.0
  0
LINE
  5
FA
100
AcDbEntity
  8
LJIB
 62
     5
100
AcDbLine
 10
3903.56289
 20
23860.136474
 30
0.0
 11
3944.96289
 21
23993.603474
 31
0.0
  0
ARC
  5
FB
100
AcDbEntity
  8
LJIB
 62
     5
100
AcDbCircle
 10
3855.86289
 20
23874.941474
 30
0.0
 40
49.999
100
AcDbArc
 50
238.761024
 51
342.780022
  0
LINE
  5
FC
100
AcDbEntity
  8
LJIB
 62
     5
100
AcDbLine
 10
4258.16289
 20
24523.140474
 30
0.0
 11
4258.16289
 21
23970.094474
 31
0.0
  0
LINE
  5
FD
100
AcDbEntity
  8
LJIB
 62
     5
100
AcDbLine
 10
3846.06289
 20
24001.018474
 30
0.0
 11
3850.06289
 21
23994.090474
 31
0.0
  0
LINE
  5
FE
100
AcDbEntity
  8
LJIB
 62
     5
100
AcDbLine
 10
4258.16289
 20
23970.094474
 30
0.0
 11
3846.06289
 21
24001.001474
 31
0.0
  0
LINE
  5
FF
100
AcDbEntity
  8
LJIB
 62
     5
100
AcDbLine
 10
5467.36289
 20
23923.144474
 30
0.0
 11
5113.76289
 21
24154.373474
 31
0.0
  0
LINE
  5
100
100
AcDbEntity
  8
LJIB
 62
     5
100
AcDbLine
 10
5466.86289
 20
23923.148474
 30
0.0
 11
5112.46289
 21
24154.856274
 31
0.0
  0
LINE
  5
101
100
AcDbEntity
  8
LJIB
 62
     5
100
AcDbLine
 10
5218.76289
 20
23908.373474
 30
0.0
 11
5218.36289
 21
23901.391474
 31
0.0
  0
LINE
  5
102
100
AcDbEntity
  8
LJIB
 62
     5
100
AcDbLine
 10
5467.36289
 20
23923.144474
 30
0.0
 11
5466.86289
 21
23923.144474
 31
0.0
  0
LINE
  5
103
100
AcDbEntity
  8
LJIB
 62
     5
100
AcDbLine
 10
5467.36289
 20
23908.144474
 30
0.0
 11
5466.86289
 21
23908.144474
 31
0.0
  0
LINE
  5
104
100
AcDbEntity
  8
LJIB
 62
     5
100
AcDbLine
 10
5466.86289
 20
23923.144474
 30
0.0
 11
5466.86289
 21
23908.144474
 31
0.0
  0
LINE
  5
105
100
AcDbEntity
  8
LJIB
 62
     5
100
AcDbLine
 10
5468.36289
 20
23892.672474
 30
0.0
 11
5467.86289
 21
23885.690474
 31
0.0
  0
LINE
  5
106
100
AcDbEntity
  8
LJIB
 62
     5
100
AcDbLine
 10
5467.36289
 20
23923.144474
 30
0.0
 11
5467.36289
 21
23892.714445
 31
0.0
  0
LINE
  5
107
100
AcDbEntity
  8
LJIB
 62
     5
100
AcDbLine
 10
5113.76289
 20
24321.909474
 30
0.0
 11
5467.36289
 21
24553.140474
 31
0.0
  0
LINE
  5
108
100
AcDbEntity
  8
LJIB
 62
     5
100
AcDbLine
 10
5112.46289
 20
24321.430974
 30
0.0
 11
5466.86289
 21
24553.134474
 31
0.0
  0
POLYLINE
  5
109
100
AcDbEntity
  8
LJIB
 62
     5
100
AcDb2dPolyline
 66
     1
 10
0.0
 20
0.0
 30
0.0
  0
VERTEX
  5
C48
100
AcDbEntity
  8
LJIB
 62
     5
100
AcDbVertex
100
AcDb2dVertex
 10
5113.964328
 20
24322.077735
 30
0.0
  0
VERTEX
  5
C49
100
AcDbEntity
  8
LJIB
 62
     5
100
AcDbVertex
100
AcDb2dVertex
 10
5106.617389
 20
24316.818312
 30
0.0
  0
VERTEX
  5
C4A
100
AcDbEntity
  8
LJIB
 62
     5
100
AcDbVertex
100
AcDb2dVertex
 10
5099.774822
 20
24310.914117
 30
0.0
  0
VERTEX
  5
C4B
100
AcDbEntity
  8
LJIB
 62
     5
100
AcDbVertex
100
AcDb2dVertex
 10
5093.492705
 20
24304.413534
 30
0.0
  0
VERTEX
  5
C4C
100
AcDbEntity
  8
LJIB
 62
     5
100
AcDbVertex
100
AcDb2dVertex
 10
5087.822521
 20
24297.369837
 30
0.0
  0
VERTEX
  5
C4D
100
AcDbEntity
  8
LJIB
 62
     5
100
AcDbVertex
100
AcDb2dVertex
 10
5082.810736
 20
24289.840751
 30
0.0
  0
VERTEX
  5
C4E
100
AcDbEntity
  8
LJIB
 62
     5
100
AcDbVertex
100
AcDb2dVertex
 10
5078.498423
 20
24281.887976
 30
0.0
  0
VERTEX
  5
C4F
100
AcDbEntity
  8
LJIB
 62
     5
100
AcDbVertex
100
AcDb2dVertex
 10
5074.920922
 20
24273.576687
 30
0.0
  0
VERTEX
  5
C50
100
AcDbEntity
  8
LJIB
 62
     5
100
AcDbVertex
100
AcDb2dVertex
 10
5072.107552
 20
24264.974997
 30
0.0
  0
VERTEX
  5
C51
100
AcDbEntity
  8
LJIB
 62
     5
100
AcDbVertex
100
AcDb2dVertex
 10
5070.081368
 20
24256.153396
 30
0.0
  0
VERTEX
  5
C52
100
AcDbEntity
  8
LJIB
 62
     5
100
AcDbVertex
100
AcDb2dVertex
 10
5068.858974
 20
24247.18418
 30
0.0
  0
VERTEX
  5
C53
100
AcDbEntity
  8
LJIB
 62
     5
100
AcDbVertex
100
AcDb2dVertex
 10
5068.45039
 20
24238.140852
 30
0.0
  0
VERTEX
  5
C54
100
AcDbEntity
  8
LJIB
 62
     5
100
AcDbVertex
100
AcDb2dVertex
 10
5068.858963
 20
24229.097524
 30
0.0
  0
VERTEX
  5
C55
100
AcDbEntity
  8
LJIB
 62
     5
100
AcDbVertex
100
AcDb2dVertex
 10
5070.081344
 20
24220.128306
 30
0.0
  0
VERTEX
  5
C56
100
AcDbEntity
  8
LJIB
 62
     5
100
AcDbVertex
100
AcDb2dVertex
 10
5072.107517
 20
24211.306703
 30
0.0
  0
VERTEX
  5
C57
100
AcDbEntity
  8
LJIB
 62
     5
100
AcDbVertex
100
AcDb2dVertex
 10
5074.920876
 20
24202.705009
 30
0.0
  0
VERTEX
  5
C58
100
AcDbEntity
  8
LJIB
 62
     5
100
AcDbVertex
100
AcDb2dVertex
 10
5078.498366
 20
24194.393716
 30
0.0
  0
VERTEX
  5
C59
100
AcDbEntity
  8
LJIB
 62
     5
100
AcDbVertex
100
AcDb2dVertex
 10
5082.810668
 20
24186.440935
 30
0.0
  0
VERTEX
  5
C5A
100
AcDbEntity
  8
LJIB
 62
     5
100
AcDbVertex
100
AcDb2dVertex
 10
5087.822443
 20
24178.911842
 30
0.0
  0
VERTEX
  5
C5B
100
AcDbEntity
  8
LJIB
 62
     5
100
AcDbVertex
100
AcDb2dVertex
 10
5093.492619
 20
24171.868138
 30
0.0
  0
VERTEX
  5
C5C
100
AcDbEntity
  8
LJIB
 62
     5
100
AcDbVertex
100
AcDb2dVertex
 10
5099.774727
 20
24165.367547
 30
0.0
  0
VERTEX
  5
C5D
100
AcDbEntity
  8
LJIB
 62
     5
100
AcDbVertex
100
AcDb2dVertex
 10
5106.617286
 20
24159.463342
 30
0.0
  0
VERTEX
  5
C5E
100
AcDbEntity
  8
LJIB
 62
     5
100
AcDbVertex
100
AcDb2dVertex
 10
5113.964219
 20
24154.203909
 30
0.0
  0
SEQEND
  5
C5F
100
AcDbEntity
  8
LJIB
 62
     5
  0
POLYLINE
  5
122
100
AcDbEntity
  8
LJIB
 62
     5
100
AcDb2dPolyline
 66
     1
 10
0.0
 20
0.0
 30
0.0
  0
VERTEX
  5
C60
100
AcDbEntity
  8
LJIB
 62
     5
100
AcDbVertex
100
AcDb2dVertex
 10
5112.687391
 20
24321.568012
 30
0.0
  0
VERTEX
  5
C61
100
AcDbEntity
  8
LJIB
 62
     5
100
AcDbVertex
100
AcDb2dVertex
 10
5105.455568
 20
24316.293071
 30
0.0
  0
VERTEX
  5
C62
100
AcDbEntity
  8
LJIB
 62
     5
100
AcDbVertex
100
AcDb2dVertex
 10
5098.724059
 20
24310.389577
 30
0.0
  0
VERTEX
  5
C63
100
AcDbEntity
  8
LJIB
 62
     5
100
AcDbVertex
100
AcDb2dVertex
 10
5092.547003
 20
24303.905008
 30
0.0
  0
VERTEX
  5
C64
100
AcDbEntity
  8
LJIB
 62
     5
100
AcDbVertex
100
AcDb2dVertex
 10
5086.974081
 20
24296.891519
 30
0.0
  0
VERTEX
  5
C65
100
AcDbEntity
  8
LJIB
 62
     5
100
AcDbVertex
100
AcDb2dVertex
 10
5082.050113
 20
24289.405516
 30
0.0
  0
VERTEX
  5
C66
100
AcDbEntity
  8
LJIB
 62
     5
100
AcDbVertex
100
AcDb2dVertex
 10
5077.814701
 20
24281.507207
 30
0.0
  0
VERTEX
  5
C67
100
AcDbEntity
  8
LJIB
 62
     5
100
AcDbVertex
100
AcDb2dVertex
 10
5074.30191
 20
24273.260116
 30
0.0
  0
VERTEX
  5
C68
100
AcDbEntity
  8
LJIB
 62
     5
100
AcDbVertex
100
AcDb2dVertex
 10
5071.539992
 20
24264.730571
 30
0.0
  0
VERTEX
  5
C69
100
AcDbEntity
  8
LJIB
 62
     5
100
AcDbVertex
100
AcDb2dVertex
 10
5069.55116
 20
24255.987172
 30
0.0
  0
VERTEX
  5
C6A
100
AcDbEntity
  8
LJIB
 62
     5
100
AcDbVertex
100
AcDb2dVertex
 10
5068.35141
 20
24247.100241
 30
0.0
  0
VERTEX
  5
C6B
100
AcDbEntity
  8
LJIB
 62
     5
100
AcDbVertex
100
AcDb2dVertex
 10
5067.95039
 20
24238.141252
 30
0.0
  0
VERTEX
  5
C6C
100
AcDbEntity
  8
LJIB
 62
     5
100
AcDbVertex
100
AcDb2dVertex
 10
5068.351326
 20
24229.182259
 30
0.0
  0
VERTEX
  5
C6D
100
AcDbEntity
  8
LJIB
 62
     5
100
AcDbVertex
100
AcDb2dVertex
 10
5069.550994
 20
24220.295317
 30
0.0
  0
VERTEX
  5
C6E
100
AcDbEntity
  8
LJIB
 62
     5
100
AcDbVertex
100
AcDb2dVertex
 10
5071.539745
 20
24211.5519
 30
0.0
  0
VERTEX
  5
C6F
100
AcDbEntity
  8
LJIB
 62
     5
100
AcDbVertex
100
AcDb2dVertex
 10
5074.301584
 20
24203.02233
 30
0.0
  0
VERTEX
  5
C70
100
AcDbEntity
  8
LJIB
 62
     5
100
AcDbVertex
100
AcDb2dVertex
 10
5077.814299
 20
24194.775206
 30
0.0
  0
VERTEX
  5
C71
100
AcDbEntity
  8
LJIB
 62
     5
100
AcDbVertex
100
AcDb2dVertex
 10
5082.049637
 20
24186.876857
 30
0.0
  0
VERTEX
  5
C72
100
AcDbEntity
  8
LJIB
 62
     5
100
AcDbVertex
100
AcDb2dVertex
 10
5086.973535
 20
24179.390808
 30
0.0
  0
VERTEX
  5
C73
100
AcDbEntity
  8
LJIB
 62
     5
100
AcDbVertex
100
AcDb2dVertex
 10
5092.546393
 20
24172.377267
 30
0.0
  0
VERTEX
  5
C74
100
AcDbEntity
  8
LJIB
 62
     5
100
AcDbVertex
100
AcDb2dVertex
 10
5098.723388
 20
24165.89264
 30
0.0
  0
VERTEX
  5
C75
100
AcDbEntity
  8
LJIB
 62
     5
100
AcDbVertex
100
AcDb2dVertex
 10
5105.454843
 20
24159.989083
 30
0.0
  0
VERTEX
  5
C76
100
AcDbEntity
  8
LJIB
 62
     5
100
AcDbVertex
100
AcDb2dVertex
 10
5112.686617
 20
24154.714075
 30
0.0
  0
SEQEND
  5
C77
100
AcDbEntity
  8
LJIB
 62
     5
  0
LINE
  5
13B
100
AcDbEntity
  8
LJIB
 62
     5
100
AcDbLine
 10
5218.36289
 20
24574.891474
 30
0.0
 11
5218.76289
 21
24567.905474
 31
0.0
  0
LINE
  5
13C
100
AcDbEntity
  8
LJIB
 62
     5
100
AcDbLine
 10
5454.26289
 20
23983.718474
 30
0.0
 11
5447.56289
 21
23998.210474
 31
0.0
  0
LINE
  5
13D
100
AcDbEntity
  8
LJIB
 62
     5
100
AcDbLine
 10
5447.56289
 20
24478.079474
 30
0.0
 11
5454.26289
 21
24492.564474
 31
0.0
  0
LINE
  5
13E
100
AcDbEntity
  8
LJIB
 62
     5
100
AcDbLine
 10
5466.86289
 20
24553.136474
 30
0.0
 11
5467.36289
 21
24553.136474
 31
0.0
  0
LINE
  5
13F
100
AcDbEntity
  8
LJIB
 62
     5
100
AcDbLine
 10
5466.86289
 20
24568.136474
 30
0.0
 11
5467.36289
 21
24568.136474
 31
0.0
  0
LINE
  5
140
100
AcDbEntity
  8
LJIB
 62
     5
100
AcDbLine
 10
5466.86289
 20
24568.136474
 30
0.0
 11
5466.86289
 21
24553.136474
 31
0.0
  0
LINE
  5
141
100
AcDbEntity
  8
LJIB
 62
     5
100
AcDbLine
 10
5467.86289
 20
24590.592474
 30
0.0
 11
5468.26289
 21
24583.606474
 31
0.0
  0
LINE
  5
142
100
AcDbEntity
  8
LJIB
 62
     5
100
AcDbLine
 10
5467.36289
 20
24583.549503
 30
0.0
 11
5467.36289
 21
24553.136474
 31
0.0
  0
ARC
  5
143
100
AcDbEntity
  8
LJIB
 62
     5
100
AcDbCircle
 10
3870.16289
 20
24688.136474
 30
0.0
 40
100.0
100
AcDbArc
 50
53.241989
 51
109.796017
  0
LINE
  5
144
100
AcDbEntity
  8
LJIB
 62
     5
100
AcDbLine
 10
10626.66289
 20
24692.186913
 30
0.0
 11
10626.66289
 21
23789.086474
 31
0.0
  0
LINE
  5
145
100
AcDbEntity
  8
LJIB
 62
     5
100
AcDbLine
 10
10583.96289
 20
24689.499782
 30
0.0
 11
10583.96289
 21
23791.773474
 31
0.0
  0
LINE
  5
146
100
AcDbEntity
  8
LJIB
 62
     5
100
AcDbLine
 10
10429.26289
 20
24238.121334
 30
0.0
 11
10559.940139
 21
24687.98802
 31
0.0
  0
LINE
  5
147
100
AcDbEntity
  8
LJIB
 62
     5
100
AcDbLine
 10
10406.96289
 20
24314.645474
 30
0.0
 11
10514.64192
 21
24685.137382
 31
0.0
  0
LINE
  5
148
100
AcDbEntity
  8
LJIB
 62
     5
100
AcDbLine
 10
10259.56289
 20
24669.076474
 30
0.0
 11
10513.16289
 21
23796.229474
 31
0.0
  0
LINE
  5
149
100
AcDbEntity
  8
LJIB
 62
     5
100
AcDbLine
 10
10303.26289
 20
24671.825474
 30
0.0
 11
10558.46289
 21
23793.377474
 31
0.0
  0
LINE
  5
14A
100
AcDbEntity
  8
LJIB
  6
CENTER
 62
     5
100
AcDbLine
 10
10770.16289
 20
24833.320474
 30
0.0
 11
10770.16289
 21
23627.285474
 31
0.0
  0
LINE
  5
14B
100
AcDbEntity
  8
LJIB
 62
     5
100
AcDbLine
 10
10633.86289
 20
23688.431474
 30
0.0
 11
10384.36289
 21
23704.133474
 31
0.0
  0
LINE
  5
14C
100
AcDbEntity
  8
LJIB
 62
     5
100
AcDbLine
 10
10634.16289
 20
23788.610474
 30
0.0
 11
10390.66289
 21
23803.935474
 31
0.0
  0
LINE
  5
14D
100
AcDbEntity
  8
LJIB
 62
     5
100
AcDbLine
 10
10497.46289
 20
23647.975474
 30
0.0
 11
10623.46289
 21
23682.069474
 31
0.0
  0
LINE
  5
14E
100
AcDbEntity
  8
LJIB
 62
     5
100
AcDbLine
 10
10259.56289
 20
23807.171474
 30
0.0
 11
10384.76289
 21
24238.12208
 31
0.0
  0
LINE
  5
14F
100
AcDbEntity
  8
LJIB
 62
     5
100
AcDbLine
 10
10303.26289
 20
23804.428474
 30
0.0
 11
10406.96289
 21
24161.597874
 31
0.0
  0
LINE
  5
150
100
AcDbEntity
  8
LJIB
 62
     5
100
AcDbLine
 10
10390.36289
 20
23798.945474
 30
0.0
 11
10390.66289
 21
23803.931474
 31
0.0
  0
ARC
  5
151
100
AcDbEntity
  8
LJIB
 62
     5
100
AcDbCircle
 10
10492.26289
 20
23667.285474
 30
0.0
 40
19.9984
100
AcDbArc
 50
192.56401
 51
285.149005
  0
LINE
  5
152
100
AcDbEntity
  8
LJIB
 62
     5
100
AcDbLine
 10
10472.76289
 20
23662.694474
 30
0.0
 11
10464.16289
 21
23699.113474
 31
0.0
  0
LINE
  5
153
100
AcDbEntity
  8
LJIB
 62
     5
100
AcDbLine
 10
10640.16289
 20
23693.049474
 30
0.0
 11
10634.16289
 21
23693.426474
 31
0.0
  0
LINE
  5
154
100
AcDbEntity
  8
LJIB
 62
     5
100
AcDbLine
 10
10623.46289
 20
23682.068474
 30
0.0
 11
10623.86289
 21
23689.062474
 31
0.0
  0
LINE
  5
155
100
AcDbEntity
  8
LJIB
 62
     5
100
AcDbLine
 10
10633.86289
 20
23783.619474
 30
0.0
 11
10634.26289
 21
23788.605474
 31
0.0
  0
LINE
  5
156
100
AcDbEntity
  8
LJIB
 62
     5
100
AcDbLine
 10
10633.86289
 20
23688.428474
 30
0.0
 11
10634.16289
 21
23693.422474
 31
0.0
  0
CIRCLE
  5
157
100
AcDbEntity
  8
LJIB
 62
     5
100
AcDbCircle
 10
10770.16289
 20
23738.148474
 30
0.0
 40
30.0
  0
LINE
  5
158
100
AcDbEntity
  8
LJIB
 62
     5
100
AcDbLine
 10
10690.16289
 20
23685.641474
 30
0.0
 11
10690.16289
 21
23790.641474
 31
0.0
  0
LINE
  5
159
100
AcDbEntity
  8
LJIB
 62
     5
100
AcDbLine
 10
10640.16289
 20
23685.641474
 30
0.0
 11
10690.16289
 21
23685.641474
 31
0.0
  0
LINE
  5
15A
100
AcDbEntity
  8
LJIB
 62
     5
100
AcDbLine
 10
10640.16289
 20
23790.641474
 30
0.0
 11
10690.16289
 21
23790.641474
 31
0.0
  0
LINE
  5
15B
100
AcDbEntity
  8
LJIB
 62
     5
100
AcDbLine
 10
10690.16289
 20
23790.642474
 30
0.0
 11
10761.56289
 21
23800.544474
 31
0.0
  0
LINE
  5
15C
100
AcDbEntity
  8
LJIB
 62
     5
100
AcDbLine
 10
10690.16289
 20
23685.651474
 30
0.0
 11
10761.56289
 21
23675.748474
 31
0.0
  0
ARC
  5
15D
100
AcDbEntity
  8
LJIB
 62
     5
100
AcDbCircle
 10
10770.16289
 20
23738.139474
 30
0.0
 40
63.0001
100
AcDbArc
 50
262.097022
 51
97.902903
  0
LINE
  5
15E
100
AcDbEntity
  8
LJIB
 62
     5
100
AcDbLine
 10
10384.36289
 20
24772.146474
 30
0.0
 11
10637.76289
 21
24788.0929
 31
0.0
  0
ARC
  5
15F
100
AcDbEntity
  8
LJIB
 62
     5
100
AcDbCircle
 10
10605.26289
 20
24830.472474
 30
0.0
 40
34.9992
100
AcDbArc
 50
158.208028
 51
201.792011
  0
LINE
  5
160
100
AcDbEntity
  8
LJIB
 62
     5
100
AcDbLine
 10
10385.76289
 20
24751.195474
 30
0.0
 11
10384.36289
 21
24772.150474
 31
0.0
  0
LINE
  5
161
100
AcDbEntity
  8
LJIB
 62
     5
100
AcDbLine
 10
10640.16289
 20
24693.036474
 30
0.0
 11
10640.16289
 21
24685.644474
 31
0.0
  0
LINE
  5
162
100
AcDbEntity
  8
LJIB
 62
     5
100
AcDbLine
 10
10637.76289
 20
24790.644474
 30
0.0
 11
10690.16289
 21
24790.644474
 31
0.0
  0
ARC
  5
163
100
AcDbEntity
  8
LJIB
 62
     5
100
AcDbCircle
 10
10605.26289
 20
24830.472474
 30
0.0
 40
34.9995
100
AcDbArc
 50
338.223977
 51
21.775891
  0
LINE
  5
164
100
AcDbEntity
  8
LJIB
 62
     5
100
AcDbLine
 10
10620.26289
 20
24910.465474
 30
0.0
 11
10637.76289
 21
24860.463474
 31
0.0
  0
LINE
  5
165
100
AcDbEntity
  8
LJIB
 62
     5
100
AcDbLine
 10
10572.76289
 20
24860.465474
 30
0.0
 11
10590.26289
 21
24910.463474
 31
0.0
  0
LINE
  5
166
100
AcDbEntity
  8
LJIB
 62
     5
100
AcDbLine
 10
10572.76289
 20
24860.457474
 30
0.0
 11
10572.76289
 21
24784.004474
 31
0.0
  0
LINE
  5
167
100
AcDbEntity
  8
LJIB
 62
     5
100
AcDbLine
 10
10637.76289
 20
24860.472474
 30
0.0
 11
10637.76289
 21
24783.062474
 31
0.0
  0
LINE
  5
168
100
AcDbEntity
  8
LJIB
 62
     5
100
AcDbLine
 10
10590.26289
 20
24910.468474
 30
0.0
 11
10620.26289
 21
24910.468474
 31
0.0
  0
CIRCLE
  5
169
100
AcDbEntity
  8
LJIB
 62
     5
100
AcDbCircle
 10
10770.16289
 20
24738.140474
 30
0.0
 40
30.0
  0
ARC
  5
16A
100
AcDbEntity
  8
LJIB
 62
     5
100
AcDbCircle
 10
10770.16289
 20
24738.140474
 30
0.0
 40
63.0001
100
AcDbArc
 50
262.097022
 51
97.902903
  0
LINE
  5
16B
100
AcDbEntity
  8
LJIB
 62
     5
100
AcDbLine
 10
10640.16289
 20
24685.644474
 30
0.0
 11
10690.16289
 21
24685.644474
 31
0.0
  0
LINE
  5
16C
100
AcDbEntity
  8
LJIB
 62
     5
100
AcDbLine
 10
10690.16289
 20
24790.643474
 30
0.0
 11
10761.56289
 21
24800.545474
 31
0.0
  0
LINE
  5
16D
100
AcDbEntity
  8
LJIB
 62
     5
100
AcDbLine
 10
10690.16289
 20
24685.644474
 30
0.0
 11
10761.56289
 21
24675.742474
 31
0.0
  0
LINE
  5
29F
100
AcDbEntity
  8
SUPORT
 62
     5
100
AcDbLine
 10
25521.625184
 20
17958.132377
 30
0.0
 11
29353.425184
 21
12131.132377
 31
0.0
  0
LINE
  5
2A0
100
AcDbEntity
  8
SUPORT
 62
     5
100
AcDbLine
 10
25312.725184
 20
17820.732377
 30
0.0
 11
29144.525184
 21
11993.732377
 31
0.0
  0
LINE
  5
2A1
100
AcDbEntity
  8
SUPORT
 62
     5
100
AcDbLine
 10
28536.325184
 20
18290.732377
 30
0.0
 11
25937.525184
 21
17902.532377
 31
0.0
  0
LINE
  5
2A2
100
AcDbEntity
  8
SUPORT
 62
     5
100
AcDbLine
 10
28549.625184
 20
18201.732377
 30
0.0
 11
25950.825184
 21
17813.532377
 31
0.0
  0
ARC
  5
2A3
100
AcDbEntity
  8
SUPORT
 62
     5
100
AcDbCircle
 10
25779.825184
 20
17833.432377
 30
0.0
 40
90.0001
100
AcDbArc
 50
278.495017
 51
98.494883
  0
CIRCLE
  5
2A4
100
AcDbEntity
  8
SUPORT
 62
     5
100
AcDbCircle
 10
25779.825184
 20
17833.432377
 30
0.0
 40
39.9999
  0
LINE
  5
2A5
100
AcDbEntity
  8
SUPORT
 62
     5
100
AcDbLine
 10
25673.825184
 20
17726.632377
 30
0.0
 11
25793.125184
 21
17744.432377
 31
0.0
  0
LINE
  5
2A6
100
AcDbEntity
  8
SUPORT
 62
     5
100
AcDbLine
 10
25564.92428
 20
17892.287648
 30
0.0
 11
25769.225184
 21
17922.832377
 31
0.0
  0
ARC
  5
2A7
100
AcDbEntity
  8
SUPORT
 62
     5
100
AcDbCircle
 10
25483.125184
 20
17789.132377
 30
0.0
 40
222.499
100
AcDbArc
 50
32.341982
 51
253.600807
  0
LINE
  5
2A8
100
AcDbEntity
  8
SUPORT
 62
     5
100
AcDbLine
 10
25482.425184
 20
17453.532377
 30
0.0
 11
25532.525184
 21
17486.532377
 31
0.0
  0
ARC
  5
2A9
100
AcDbEntity
  8
SUPORT
 62
     5
100
AcDbCircle
 10
25463.125184
 20
17482.832377
 30
0.0
 40
35.0059
100
AcDbArc
 50
184.728984
 51
303.329013
  0
LINE
  5
2AA
100
AcDbEntity
  8
SUPORT
 62
     5
100
AcDbLine
 10
25527.925184
 20
17962.232377
 30
0.0
 11
25306.425184
 21
17816.732377
 31
0.0
  0
LINE
  5
2AB
100
AcDbEntity
  8
SUPORT
 62
     5
100
AcDbLine
 10
25414.325184
 20
17648.032377
 30
0.0
 11
25422.725184
 21
17653.532377
 31
0.0
  0
LINE
  5
2AC
100
AcDbEntity
  8
SUPORT
 62
     5
100
AcDbLine
 10
25428.225184
 20
17479.932377
 30
0.0
 11
25414.325184
 21
17648.032377
 31
0.0
  0
LINE
  5
2AD
100
AcDbEntity
  8
SUPORT
  6
PHANTOM
 62
     5
100
AcDbLine
 10
25714.025184
 20
17732.632377
 30
0.0
 11
25714.725184
 21
17727.632377
 31
0.0
  0
CIRCLE
  5
2AE
100
AcDbEntity
  8
SUPORT
 62
     5
100
AcDbCircle
 10
25483.125184
 20
17789.132377
 30
0.0
 40
65.0
  0
LINE
  5
2AF
100
AcDbEntity
  8
SUPORT
 62
     5
100
AcDbLine
 10
25905.625184
 20
17902.932377
 30
0.0
 11
25795.225184
 21
17922.132377
 31
0.0
  0
LINE
  5
2B0
100
AcDbEntity
  8
SUPORT
 62
     5
100
AcDbLine
 10
25920.425184
 20
17803.832377
 30
0.0
 11
25820.525184
 21
17753.232377
 31
0.0
  0
ARC
  5
2B1
100
AcDbEntity
  8
SUPORT
 62
     5
100
AcDbCircle
 10
25965.525184
 20
17714.632377
 30
0.0
 40
100.0
100
AcDbArc
 50
98.494482
 51
116.873994
  0
ARC
  5
2B2
100
AcDbEntity
  8
SUPORT
 62
     5
100
AcDbCircle
 10
25922.725184
 20
18001.432377
 30
0.0
 40
99.9998
100
AcDbArc
 50
260.116021
 51
278.495017
  0
LINE
  5
2B3
100
AcDbEntity
  8
SUPORT
 62
     5
100
AcDbLine
 10
32572.535184
 20
18887.832377
 30
0.0
 11
29845.825184
 21
11783.232377
 31
0.0
  0
LINE
  5
2B4
100
AcDbEntity
  8
SUPORT
 62
     5
100
AcDbLine
 10
32322.435184
 20
18983.832377
 30
0.0
 11
29597.049348
 21
11878.750278
 31
0.0
  0
LINE
  5
2B5
100
AcDbEntity
  8
SUPORT
 62
     5
100
AcDbLine
 10
29845.825184
 20
11783.232377
 30
0.0
 11
29498.125184
 21
11916.732377
 31
0.0
  0
LINE
  5
2B6
100
AcDbEntity
  8
SUPORT
  6
CENTER
 62
     5
100
AcDbLine
 10
29650.225184
 20
11504.832377
 30
0.0
 11
29569.925184
 21
11535.732377
 31
0.0
  0
LINE
  5
2B7
100
AcDbEntity
  8
SUPORT
  6
CENTER
 62
     5
100
AcDbLine
 10
29565.125184
 20
11497.232377
 30
0.0
 11
29640.025184
 21
11546.432377
 31
0.0
  0
POINT
  5
2B8
100
AcDbEntity
  8
SUPORT
 62
     5
100
AcDbPoint
 10
29603.857774
 20
11522.67488
 30
0.0
  0
LINE
  5
2B9
100
AcDbEntity
  8
SUPORT
 62
     5
100
AcDbLine
 10
29527.025184
 20
11475.832377
 30
0.0
 11
29641.255166
 21
11411.904486
 31
0.0
  0
LINE
  5
2BA
100
AcDbEntity
  8
SUPORT
 62
     5
100
AcDbLine
 10
29288.925184
 20
11856.132377
 30
0.0
 11
29527.025184
 21
11475.832377
 31
0.0
  0
LINE
  5
2BB
100
AcDbEntity
  8
SUPORT
 62
     5
100
AcDbLine
 10
29295.025184
 20
11846.232377
 30
0.0
 11
29147.025184
 21
11976.332377
 31
0.0
  0
LINE
  5
2BC
100
AcDbEntity
  8
SUPORT
 62
     5
100
AcDbLine
 10
29359.625184
 20
12135.232377
 30
0.0
 11
29138.225184
 21
11989.632377
 31
0.0
  0
LINE
  5
2BD
100
AcDbEntity
  8
SUPORT
 62
     5
100
AcDbLine
 10
29138.225184
 20
11989.632377
 30
0.0
 11
29147.025184
 21
11976.232377
 31
0.0
  0
LINE
  5
2BE
100
AcDbEntity
  8
SUPORT
 62
     5
100
AcDbLine
 10
29498.125184
 20
11916.732377
 30
0.0
 11
29392.825184
 21
11970.032377
 31
0.0
  0
LINE
  5
2BF
100
AcDbEntity
  8
SUPORT
 62
     5
100
AcDbLine
 10
29359.625184
 20
12135.232377
 30
0.0
 11
29368.425184
 21
12121.832377
 31
0.0
  0
LINE
  5
2C0
100
AcDbEntity
  8
SUPORT
 62
     5
100
AcDbLine
 10
29422.525184
 20
11955.032377
 30
0.0
 11
29368.425184
 21
12121.832377
 31
0.0
  0
ARC
  5
2C1
100
AcDbEntity
  8
SUPORT
 62
     5
100
AcDbCircle
 10
29356.625184
 20
11898.632377
 30
0.0
 40
79.9997
100
AcDbArc
 50
63.165274
 51
212.055003
  0
CIRCLE
  5
2C2
100
AcDbEntity
  8
SUPORT
 62
     5
100
AcDbCircle
 10
29356.625184
 20
11898.632377
 30
0.0
 40
40.0
  0
LINE
  5
2C3
100
AcDbEntity
  8
SUPORT
 62
     5
100
AcDbLine
 10
29845.925184
 20
11783.232377
 30
0.0
 11
29655.011361
 21
11416.018066
 31
0.0
  0
ARC
  5
2C4
100
AcDbEntity
  8
SUPORT
 62
     5
100
AcDbCircle
 10
29646.138821
 20
11420.630878
 30
0.0
 40
10.0
100
AcDbArc
 50
240.766793
 51
332.530189
  0
LINE
  5
2C5
100
AcDbEntity
  8
SUPORT
 62
     5
100
AcDbLine
 10
29097.37054
 20
12637.774915
 30
0.0
 11
29821.563886
 21
12713.489752
 31
0.0
  0
LINE
  5
2C6
100
AcDbEntity
  8
SUPORT
 62
     5
100
AcDbLine
 10
29087.989035
 20
12713.431982
 30
0.0
 11
29846.136372
 21
12792.681826
 31
0.0
  0
ARC
  5
2C7
100
AcDbEntity
  8
SUPORT
 62
     5
100
AcDbCircle
 10
29080.025184
 20
12674.232377
 30
0.0
 40
40.0004
100
AcDbArc
 50
303.327982
 51
90.782011
  0
LINE
  5
2C8
100
AcDbEntity
  8
SUPORT
 62
     5
100
AcDbLine
 10
28977.646778
 20
12702.576807
 30
0.0
 11
28993.425184
 21
12713.032377
 31
0.0
  0
LINE
  5
2C9
100
AcDbEntity
  8
SUPORT
 62
     5
100
AcDbLine
 10
28993.425184
 20
12713.032377
 30
0.0
 11
29079.525184
 21
12714.232377
 31
0.0
  0
LINE
  5
2CA
100
AcDbEntity
  8
SUPORT
 62
     5
100
AcDbLine
 10
29043.520556
 20
12602.402867
 30
0.0
 11
29102.025184
 21
12640.832377
 31
0.0
  0
LINE
  5
2CB
100
AcDbEntity
  8
SUPORT
 62
     5
100
AcDbLine
 10
29976.925184
 20
12868.332377
 30
0.0
 11
29925.625184
 21
12888.032377
 31
0.0
  0
LINE
  5
2CC
100
AcDbEntity
  8
SUPORT
 62
     5
100
AcDbLine
 10
29898.125184
 20
12662.932377
 30
0.0
 11
29846.725184
 21
12682.632377
 31
0.0
  0
LINE
  5
2CD
100
AcDbEntity
  8
SUPORT
 62
     5
100
AcDbLine
 10
29873.925184
 20
12865.032377
 30
0.0
 11
29823.725184
 21
12734.332377
 31
0.0
  0
ARC
  5
2CE
100
AcDbEntity
  8
SUPORT
 62
     5
100
AcDbCircle
 10
29911.225184
 20
12850.732377
 30
0.0
 40
40.0006
100
AcDbArc
 50
68.999989
 51
158.998023
  0
ARC
  5
2CF
100
AcDbEntity
  8
SUPORT
 62
     5
100
AcDbCircle
 10
29861.025184
 20
12720.032377
 30
0.0
 40
40.0
100
AcDbArc
 50
158.998023
 51
249.000009
  0
LINE
  5
2D0
100
AcDbEntity
  8
SUPORT
 62
     5
100
AcDbLine
 10
30505.025184
 20
13521.432377
 30
0.0
 11
30271.625184
 21
13611.032377
 31
0.0
  0
LINE
  5
2D1
100
AcDbEntity
  8
SUPORT
 62
     5
100
AcDbLine
 10
30507.525184
 20
13527.932377
 30
0.0
 11
30274.125184
 21
13617.532377
 31
0.0
  0
LINE
  5
2D2
100
AcDbEntity
  8
SUPORT
 62
     5
100
AcDbLine
 10
31942.125184
 20
18814.532377
 30
0.0
 11
28857.325184
 21
18353.832377
 31
0.0
  0
LINE
  5
2D3
100
AcDbEntity
  8
SUPORT
 62
     5
100
AcDbLine
 10
31954.525184
 20
18705.232377
 30
0.0
 11
28877.225184
 21
18245.532377
 31
0.0
  0
ARC
  5
2D4
100
AcDbEntity
  8
SUPORT
 62
     5
100
AcDbCircle
 10
28707.325184
 20
18270.732377
 30
0.0
 40
89.9997
100
AcDbArc
 50
86.441627
 51
294.617992
  0
LINE
  5
2D5
100
AcDbEntity
  8
SUPORT
 62
     5
100
AcDbLine
 10
28581.525184
 20
18201.332377
 30
0.0
 11
28691.825184
 21
18182.032377
 31
0.0
  0
LINE
  5
2D6
100
AcDbEntity
  8
SUPORT
 62
     5
100
AcDbLine
 10
28566.825184
 20
18300.432377
 30
0.0
 11
28666.725184
 21
18351.032377
 31
0.0
  0
ARC
  5
2D7
100
AcDbEntity
  8
SUPORT
 62
     5
100
AcDbCircle
 10
28521.525184
 20
18389.632377
 30
0.0
 40
99.9995
100
AcDbArc
 50
278.495017
 51
296.874014
  0
ARC
  5
2D8
100
AcDbEntity
  8
SUPORT
 62
     5
100
AcDbCircle
 10
28564.325184
 20
18102.732377
 30
0.0
 40
100.0
100
AcDbArc
 50
80.1156
 51
98.494482
  0
CIRCLE
  5
2D9
100
AcDbEntity
  8
SUPORT
 62
     5
100
AcDbCircle
 10
28707.325184
 20
18270.732377
 30
0.0
 40
39.9999
  0
CIRCLE
  5
2DA
100
AcDbEntity
  8
SUPORT
 62
     5
100
AcDbCircle
 10
28707.325184
 20
18270.732377
 30
0.0
 40
39.9999
  0
LINE
  5
2DB
100
AcDbEntity
  8
SUPORT
 62
     5
100
AcDbLine
 10
28836.325184
 20
18352.932377
 30
0.0
 11
28712.925184
 21
18360.532377
 31
0.0
  0
LINE
  5
2DC
100
AcDbEntity
  8
SUPORT
 62
     5
100
AcDbLine
 10
28850.125184
 20
18237.432377
 30
0.0
 11
28745.025184
 21
18189.032377
 31
0.0
  0
LINE
  5
2DD
100
AcDbEntity
  8
SUPORT
 62
     5
100
AcDbLine
 10
28883.825184
 20
18240.432377
 30
0.0
 11
28882.925184
 21
18246.432377
 31
0.0
  0
ARC
  5
2DE
100
AcDbEntity
  8
SUPORT
 62
     5
100
AcDbCircle
 10
28891.925184
 20
18146.632377
 30
0.0
 40
100.0
100
AcDbArc
 50
98.494482
 51
114.755024
  0
ARC
  5
2DF
100
AcDbEntity
  8
SUPORT
 62
     5
100
AcDbCircle
 10
28842.525184
 20
18452.732377
 30
0.0
 40
100.0
100
AcDbArc
 50
266.441991
 51
278.495017
  0
LINE
  5
2E0
100
AcDbEntity
  8
SUPORT
 62
     5
100
AcDbLine
 10
32326.085184
 20
18982.432377
 30
0.0
 11
32572.535184
 21
18887.832377
 31
0.0
  0
LINE
  5
2E1
100
AcDbEntity
  8
SUPORT
 62
     5
100
AcDbLine
 10
32521.995184
 20
18467.232377
 30
0.0
 11
32472.475184
 21
18565.432377
 31
0.0
  0
LINE
  5
2E2
100
AcDbEntity
  8
SUPORT
  6
PHANTOM
 62
     5
100
AcDbLine
 10
32476.645184
 20
18532.832377
 30
0.0
 11
32498.265184
 21
18489.932377
 31
0.0
  0
LINE
  5
2E3
100
AcDbEntity
  8
SUPORT
 62
     5
100
AcDbLine
 10
32539.455184
 20
18459.232377
 30
0.0
 11
32464.836597
 21
18607.217503
 31
0.0
  0
LINE
  5
2E4
100
AcDbEntity
  8
SUPORT
 62
     5
100
AcDbLine
 10
32549.245184
 20
18475.332377
 30
0.0
 11
32472.588317
 21
18627.415056
 31
0.0
  0
ARC
  5
2E5
100
AcDbEntity
  8
SUPORT
 62
     5
100
AcDbCircle
 10
32406.285184
 20
18823.232377
 30
0.0
 40
222.501
100
AcDbArc
 50
308.432979
 51
162.692106
  0
ARC
  5
2E6
100
AcDbEntity
  8
SUPORT
 62
     5
100
AcDbCircle
 10
32109.625184
 20
18778.932377
 30
0.0
 40
89.9999
100
AcDbArc
 50
262.492994
 51
110.546993
  0
CIRCLE
  5
2E7
100
AcDbEntity
  8
SUPORT
 62
     5
100
AcDbCircle
 10
32109.625184
 20
18778.932377
 30
0.0
 40
39.9999
  0
LINE
  5
2E8
100
AcDbEntity
  8
SUPORT
 62
     5
100
AcDbLine
 10
31982.725184
 20
18705.332377
 30
0.0
 11
32097.425184
 21
18689.732377
 31
0.0
  0
LINE
  5
2E9
100
AcDbEntity
  8
SUPORT
 62
     5
100
AcDbLine
 10
31949.825184
 20
18698.432377
 30
0.0
 11
31948.925184
 21
18704.332377
 31
0.0
  0
ARC
  5
2EA
100
AcDbEntity
  8
SUPORT
 62
     5
100
AcDbCircle
 10
31969.225184
 20
18606.232377
 30
0.0
 40
100.0
100
AcDbArc
 50
82.234111
 51
98.494482
  0
LINE
  5
2EB
100
AcDbEntity
  8
SUPORT
 62
     5
100
AcDbLine
 10
32115.725184
 20
18689.132377
 30
0.0
 11
32224.425184
 21
18698.032377
 31
0.0
  0
LINE
  5
2EC
100
AcDbEntity
  8
SUPORT
 62
     5
100
AcDbLine
 10
32472.475184
 20
18565.432377
 30
0.0
 11
32483.185184
 21
18570.832377
 31
0.0
  0
LINE
  5
2ED
100
AcDbEntity
  8
SUPORT
  6
PHANTOM
 62
     5
100
AcDbLine
 10
32476.665184
 20
18532.832377
 30
0.0
 11
32478.435184
 21
18538.232377
 31
0.0
  0
LINE
  5
2EE
100
AcDbEntity
  8
SUPORT
  6
PHANTOM
 62
     5
100
AcDbLine
 10
32484.715184
 20
18541.332377
 30
0.0
 11
32478.465184
 21
18538.232377
 31
0.0
  0
LINE
  5
2EF
100
AcDbEntity
  8
SUPORT
 62
     5
100
AcDbLine
 10
31962.325184
 20
18819.832377
 30
0.0
 11
32078.025184
 21
18863.232377
 31
0.0
  0
ARC
  5
2F0
100
AcDbEntity
  8
SUPORT
 62
     5
100
AcDbCircle
 10
31927.125184
 20
18913.432377
 30
0.0
 40
99.9995
100
AcDbArc
 50
278.495017
 51
290.547987
  0
LINE
  5
2F1
100
AcDbEntity
  8
SUPORT
 62
     5
100
AcDbLine
 10
32090.425184
 20
18866.832377
 30
0.0
 11
32307.405184
 21
18914.232377
 31
0.0
  0
CIRCLE
  5
2F2
100
AcDbEntity
  8
SUPORT
 62
     5
100
AcDbCircle
 10
32406.285184
 20
18823.232377
 30
0.0
 40
55.0
  0
CIRCLE
  5
2F3
100
AcDbEntity
  8
SUPORT
 62
     5
100
AcDbCircle
 10
32406.285184
 20
18823.232377
 30
0.0
 40
54.9987
  0
CIRCLE
  5
2F4
100
AcDbEntity
  8
SUPORT
 62
     5
100
AcDbCircle
 10
32406.285184
 20
18823.232377
 30
0.0
 40
54.9987
  0
LINE
  5
2F5
100
AcDbEntity
  8
SUPORT
 62
     5
100
AcDbLine
 10
32322.435184
 20
18983.932377
 30
0.0
 11
32330.835184
 21
18980.732377
 31
0.0
  0
LINE
  5
2F6
100
AcDbEntity
  8
SUPORT
 62
     5
100
AcDbLine
 10
32552.825184
 20
18470.432377
 30
0.0
 11
32496.095184
 21
18582.932377
 31
0.0
  0
LINE
  5
2F7
100
AcDbEntity
  8
SUPORT
 62
     5
100
AcDbLine
 10
32532.715184
 20
18472.632377
 30
0.0
 11
32521.995184
 21
18467.232377
 31
0.0
  0
LINE
  5
2F8
100
AcDbEntity
  8
SUPORT
  6
PHANTOM
 62
     5
100
AcDbLine
 10
32498.275184
 20
18490.032377
 30
0.0
 11
32503.645184
 21
18488.232377
 31
0.0
  0
LINE
  5
2F9
100
AcDbEntity
  8
SUPORT
  6
PHANTOM
 62
     5
100
AcDbLine
 10
32509.925184
 20
18491.332377
 30
0.0
 11
32503.675184
 21
18488.232377
 31
0.0
  0
LINE
  5
2FA
100
AcDbEntity
  8
SUPORT
 62
     5
100
AcDbLine
 10
32602.825184
 20
18495.632377
 30
0.0
 11
32546.095184
 21
18608.132377
 31
0.0
  0
LINE
  5
2FB
100
AcDbEntity
  8
SUPORT
 62
     5
100
AcDbLine
 10
32549.245184
 20
18475.332377
 30
0.0
 11
32544.815184
 21
18461.932377
 31
0.0
  0
LINE
  5
2FC
100
AcDbEntity
  8
SUPORT
 62
     5
100
AcDbLine
 10
32544.815184
 20
18461.932377
 30
0.0
 11
32539.455184
 21
18459.232377
 31
0.0
  0
LINE
  5
2FD
100
AcDbEntity
  8
SUPORT
 62
     5
100
AcDbLine
 10
32619.825184
 20
18499.732377
 30
0.0
 11
32614.455184
 21
18497.032377
 31
0.0
  0
LINE
  5
2FE
100
AcDbEntity
  8
SUPORT
 62
     5
100
AcDbLine
 10
32623.785184
 20
18518.532377
 30
0.0
 11
32613.075184
 21
18513.132377
 31
0.0
  0
LINE
  5
2FF
100
AcDbEntity
  8
SUPORT
 62
     5
100
AcDbLine
 10
32574.255184
 20
18616.732377
 30
0.0
 11
32623.785184
 21
18518.532377
 31
0.0
  0
LINE
  5
300
100
AcDbEntity
  8
SUPORT
 62
     5
100
AcDbLine
 10
32563.545184
 20
18611.332377
 30
0.0
 11
32574.255184
 21
18616.732377
 31
0.0
  0
LINE
  5
301
100
AcDbEntity
  8
SUPORT
  6
PHANTOM
 62
     5
100
AcDbLine
 10
32622.815184
 20
18620.532377
 30
0.0
 11
32655.685184
 21
18555.332377
 31
0.0
  0
LINE
  5
302
100
AcDbEntity
  8
SUPORT
  6
PHANTOM
 62
     5
100
AcDbLine
 10
32622.855184
 20
18620.532377
 30
0.0
 11
32582.57498
 21
18600.237243
 31
0.0
  0
LINE
  5
303
100
AcDbEntity
  8
SUPORT
  6
PHANTOM
 62
     5
100
AcDbLine
 10
32655.725184
 20
18555.332377
 30
0.0
 11
32615.457338
 21
18535.04347
 31
0.0
  0
LINE
  5
304
100
AcDbEntity
  8
SUPORT
  6
PHANTOM
 62
     5
100
AcDbLine
 10
32628.885184
 20
18621.932377
 30
0.0
 11
32623.525184
 21
18619.232377
 31
0.0
  0
LINE
  5
305
100
AcDbEntity
  8
SUPORT
  6
PHANTOM
 62
     5
100
AcDbLine
 10
32660.415184
 20
18559.432377
 30
0.0
 11
32655.045184
 21
18556.732377
 31
0.0
  0
LINE
  5
306
100
AcDbEntity
  8
SUPORT
  6
PHANTOM
 62
     5
100
AcDbLine
 10
32628.865184
 20
18621.932377
 30
0.0
 11
32634.245184
 21
18620.132377
 31
0.0
  0
LINE
  5
307
100
AcDbEntity
  8
SUPORT
  6
PHANTOM
 62
     5
100
AcDbLine
 10
32660.365184
 20
18559.432377
 30
0.0
 11
32662.145184
 21
18564.832377
 31
0.0
  0
LINE
  5
308
100
AcDbEntity
  8
SUPORT
  6
PHANTOM
 62
     5
100
AcDbLine
 10
32677.535184
 20
18640.832377
 30
0.0
 11
32704.545184
 21
18587.232377
 31
0.0
  0
LINE
  5
309
100
AcDbEntity
  8
SUPORT
  6
PHANTOM
 62
     5
100
AcDbLine
 10
32642.705184
 20
18623.332377
 30
0.0
 11
32669.715184
 21
18569.732377
 31
0.0
  0
LINE
  5
30A
100
AcDbEntity
  8
SUPORT
  6
PHANTOM
 62
     5
100
AcDbLine
 10
32669.495184
 20
18636.832377
 30
0.0
 11
32696.505184
 21
18583.232377
 31
0.0
  0
LINE
  5
30B
100
AcDbEntity
  8
SUPORT
 62
     5
100
AcDbLine
 10
32730.675184
 20
18247.632377
 30
0.0
 11
32609.565184
 21
18487.832377
 31
0.0
  0
LINE
  5
30C
100
AcDbEntity
  8
SUPORT
 62
     5
100
AcDbLine
 10
32676.215184
 20
18220.232377
 30
0.0
 11
32555.095184
 21
18460.332377
 31
0.0
  0
LINE
  5
30D
100
AcDbEntity
  8
SUPORT
 62
     5
100
AcDbLine
 10
32730.685184
 20
18247.632377
 30
0.0
 11
32676.215184
 21
18220.232377
 31
0.0
  0
LINE
  5
30E
100
AcDbEntity
  8
SUPORT
 62
     5
100
AcDbLine
 10
32609.545184
 20
18493.432377
 30
0.0
 11
32602.825184
 21
18495.632377
 31
0.0
  0
LINE
  5
30F
100
AcDbEntity
  8
SUPORT
 62
     5
100
AcDbLine
 10
32609.545184
 20
18493.432377
 30
0.0
 11
32609.565184
 21
18487.832377
 31
0.0
  0
LINE
  5
310
100
AcDbEntity
  8
SUPORT
 62
     5
100
AcDbLine
 10
32552.825184
 20
18470.432377
 30
0.0
 11
32550.615184
 21
18463.732377
 31
0.0
  0
LINE
  5
311
100
AcDbEntity
  8
SUPORT
 62
     5
100
AcDbLine
 10
32555.095184
 20
18460.332377
 30
0.0
 11
32550.615184
 21
18463.732377
 31
0.0
  0
LINE
  5
312
100
AcDbEntity
  8
SUPORT
 62
     5
100
AcDbLine
 10
32601.035184
 20
18501.432377
 30
0.0
 11
32614.455184
 21
18497.032377
 31
0.0
  0
ARC
  5
313
100
AcDbEntity
  8
SUPORT
  6
PHANTOM
 62
     5
100
AcDbCircle
 10
32656.135184
 20
18630.132377
 30
0.0
 40
24.0012
100
AcDbArc
 50
26.759994
 51
206.760014
  0
ARC
  5
314
100
AcDbEntity
  8
SUPORT
  6
PHANTOM
 62
     5
100
AcDbCircle
 10
32683.155184
 20
18576.532377
 30
0.0
 40
24.0012
100
AcDbArc
 50
206.760014
 51
26.759994
  0
ARC
  5
315
100
AcDbEntity
  8
SUPORT
  6
PHANTOM
 62
     5
100
AcDbCircle
 10
32656.135184
 20
18630.132377
 30
0.0
 40
15.0014
100
AcDbArc
 50
26.761885
 51
206.762019
  0
ARC
  5
316
100
AcDbEntity
  8
SUPORT
  6
PHANTOM
 62
     5
100
AcDbCircle
 10
32683.155184
 20
18576.532377
 30
0.0
 40
15.0014
100
AcDbArc
 50
206.762019
 51
26.761885
  0
LINE
  5
317
100
AcDbEntity
  8
SUPORT
 62
     5
100
AcDbLine
 10
32500.650563
 20
18700.532857
 30
0.0
 11
32601.035184
 21
18501.432377
 31
0.0
  0
LINE
  5
318
100
AcDbEntity
  8
SUPORT
 62
     5
100
AcDbLine
 10
32508.401885
 20
18720.729371
 30
0.0
 11
32619.815184
 21
18499.732377
 31
0.0
  0
LINE
  5
319
100
AcDbEntity
  8
SUPORT
 62
     5
100
AcDbLine
 10
32564.135184
 20
18891.132377
 30
0.0
 11
32572.535184
 21
18887.932377
 31
0.0
  0
LINE
  5
31A
100
AcDbEntity
  8
EXSUPORT
 62
     5
100
AcDbLine
 10
31613.577598
 20
6750.916429
 30
0.0
 11
36063.577598
 21
6750.916429
 31
0.0
  0
LINE
  5
31B
100
AcDbEntity
  8
EXSUPORT
 62
     5
100
AcDbLine
 10
31613.577598
 20
6650.916429
 30
0.0
 11
36063.577598
 21
6650.916429
 31
0.0
  0
POINT
  5
31C
100
AcDbEntity
  8
EXSUPORT
 62
     5
100
AcDbPoint
 10
31513.577598
 20
6700.916429
 30
0.0
  0
ARC
  5
31D
100
AcDbEntity
  8
EXSUPORT
 62
     5
100
AcDbCircle
 10
31513.577598
 20
6700.916429
 30
0.0
 40
40.0
100
AcDbArc
 50
95.60169
 51
264.39831
  0
LINE
  5
31E
100
AcDbEntity
  8
EXSUPORT
 62
     5
100
AcDbLine
 10
31613.577598
 20
6750.916429
 30
0.0
 11
31613.577598
 21
6650.916429
 31
0.0
  0
CIRCLE
  5
31F
100
AcDbEntity
  8
EXSUPORT
 62
     5
100
AcDbCircle
 10
31513.577598
 20
6700.916429
 30
0.0
 40
25.0
  0
LINE
  5
320
100
AcDbEntity
  8
EXSUPORT
 62
     5
100
AcDbLine
 10
31613.577598
 20
6750.916429
 30
0.0
 11
31509.673107
 21
6740.72541
 31
0.0
  0
LINE
  5
321
100
AcDbEntity
  8
EXSUPORT
 62
     5
100
AcDbLine
 10
31613.577598
 20
6650.916429
 30
0.0
 11
31509.673107
 21
6661.107448
 31
0.0
  0
CIRCLE
  5
322
100
AcDbEntity
  8
EXSUPORT
 62
     5
100
AcDbCircle
 10
36013.577598
 20
6700.916429
 30
0.0
 40
12.5
  0
LINE
  5
323
100
AcDbEntity
  8
EXSUPORT
 62
     5
100
AcDbLine
 10
36063.577598
 20
6750.916429
 30
0.0
 11
36063.577598
 21
6650.916429
 31
0.0
  0
LINE
  5
324
100
AcDbEntity
  8
EXTLJ
 62
     5
100
AcDbLine
 10
26646.496644
 20
6691.832841
 30
0.0
 11
26646.496644
 21
6655.833161
 31
0.0
  0
LINE
  5
325
100
AcDbEntity
  8
EXTLJ
  6
CENTER
 62
     5
100
AcDbLine
 10
26602.497444
 20
6952.151561
 30
0.0
 11
26602.497444
 21
6618.107561
 31
0.0
  0
LINE
  5
326
100
AcDbEntity
  8
EXTLJ
  6
CENTER
 62
     5
100
AcDbLine
 10
26502.497016
 20
6887.644361
 30
0.0
 11
26502.497016
 21
6622.051561
 31
0.0
  0
LINE
  5
327
100
AcDbEntity
  8
EXTLJ
 62
     5
100
AcDbLine
 10
26367.500644
 20
6887.828361
 30
0.0
 11
26367.500644
 21
6631.833161
 31
0.0
  0
LINE
  5
328
100
AcDbEntity
  8
EXTLJ
 62
     5
100
AcDbLine
 10
25392.35003
 20
6886.689091
 30
0.0
 11
25250.27632
 21
6620.878827
 31
0.0
  0
LINE
  5
329
100
AcDbEntity
  8
EXTLJ
 62
     5
100
AcDbLine
 10
25429.397116
 20
6883.537003
 30
0.0
 11
25290.848056
 21
6624.3308
 31
0.0
  0
LINE
  5
32A
100
AcDbEntity
  8
EXTLJ
 62
     5
100
AcDbLine
 10
25363.259844
 20
6759.821489
 30
0.0
 11
25429.37467
 21
6636.117089
 31
0.0
  0
LINE
  5
32B
100
AcDbEntity
  8
EXTLJ
 62
     5
100
AcDbLine
 10
25343.891844
 20
6723.593081
 30
0.0
 11
25392.328522
 21
6632.965084
 31
0.0
  0
LINE
  5
32C
100
AcDbEntity
  8
EXTLJ
 62
     5
100
AcDbLine
 10
22889.907844
 20
6417.696361
 30
0.0
 11
22801.219844
 21
6702.406121
 31
0.0
  0
LINE
  5
32D
100
AcDbEntity
  8
EXTLJ
 62
     5
100
AcDbLine
 10
22924.851844
 20
6420.381161
 30
0.0
 11
22819.107844
 21
6759.836665
 31
0.0
  0
LINE
  5
32E
100
AcDbEntity
  8
EXTLJ
  6
CENTER
 62
     5
100
AcDbLine
 10
22502.499844
 20
7235.973961
 30
0.0
 11
22502.499844
 21
6271.141961
 31
0.0
  0
LINE
  5
32F
100
AcDbEntity
  8
EXTLJ
 62
     5
100
AcDbLine
 10
22617.419844
 20
7122.879817
 30
0.0
 11
22617.419844
 21
6396.776161
 31
0.0
  0
LINE
  5
330
100
AcDbEntity
  8
EXTLJ
 62
     5
100
AcDbLine
 10
22651.571844
 20
7120.257785
 30
0.0
 11
22651.571844
 21
6399.398192
 31
0.0
  0
LINE
  5
331
100
AcDbEntity
  8
EXTLJ
 62
     5
100
AcDbLine
 10
26367.499044
 20
6715.935721
 30
0.0
 11
22606.491844
 21
6395.937161
 31
0.0
  0
LINE
  5
332
100
AcDbEntity
  8
EXTLJ
 62
     5
100
AcDbLine
 10
22889.899844
 20
7101.955561
 30
0.0
 11
22671.527272
 21
6400.930277
 31
0.0
  0
LINE
  5
333
100
AcDbEntity
  8
EXTLJ
 62
     5
100
AcDbLine
 10
22924.843844
 20
7099.273161
 30
0.0
 11
22708.183488
 21
6403.744569
 31
0.0
  0
LINE
  5
334
100
AcDbEntity
  8
EXTLJ
 62
     5
100
AcDbLine
 10
22811.051844
 20
6335.422761
 30
0.0
 11
22611.299844
 21
6320.086761
 31
0.0
  0
LINE
  5
335
100
AcDbEntity
  8
EXTLJ
 62
     5
100
AcDbLine
 10
22566.491844
 20
6401.833161
 30
0.0
 11
22566.491844
 21
6317.833161
 31
0.0
  0
LINE
  5
336
100
AcDbEntity
  8
EXTLJ
 62
     5
100
AcDbLine
 10
22611.323844
 20
6324.098761
 30
0.0
 11
22611.635844
 21
6320.110761
 31
0.0
  0
LINE
  5
337
100
AcDbEntity
  8
EXTLJ
 62
     5
100
AcDbLine
 10
22606.491844
 20
6401.833161
 30
0.0
 11
22606.491844
 21
6317.833161
 31
0.0
  0
LINE
  5
338
100
AcDbEntity
  8
EXTLJ
 62
     5
100
AcDbLine
 10
22566.491844
 20
6317.833161
 30
0.0
 11
22606.491844
 21
6317.833161
 31
0.0
  0
LINE
  5
339
100
AcDbEntity
  8
EXTLJ
 62
     5
100
AcDbLine
 10
22566.491844
 20
6401.833161
 30
0.0
 11
22606.491844
 21
6401.833161
 31
0.0
  0
LINE
  5
33A
100
AcDbEntity
  8
EXTLJ
 62
     5
100
AcDbLine
 10
22611.331844
 20
6324.098761
 30
0.0
 11
22606.531844
 21
6323.729961
 31
0.0
  0
LINE
  5
33B
100
AcDbEntity
  8
EXTLJ
 62
     5
100
AcDbLine
 10
22611.299844
 20
6324.09815
 30
0.0
 11
22611.299844
 21
6324.097161
 31
0.0
  0
CIRCLE
  5
33C
100
AcDbEntity
  8
EXTLJ
 62
     5
100
AcDbCircle
 10
22502.499844
 20
6359.833161
 30
0.0
 40
24.0
  0
ARC
  5
33D
100
AcDbEntity
  8
EXTLJ
 62
     5
100
AcDbCircle
 10
22502.475844
 20
6359.829961
 30
0.0
 40
50.39992
100
AcDbArc
 50
82.098014
 51
277.902004
  0
LINE
  5
33E
100
AcDbEntity
  8
EXTLJ
 62
     5
100
AcDbLine
 10
22566.491844
 20
6317.833161
 30
0.0
 11
22509.419844
 21
6309.912361
 31
0.0
  0
LINE
  5
33F
100
AcDbEntity
  8
EXTLJ
 62
     5
100
AcDbLine
 10
22566.483844
 20
6401.833961
 30
0.0
 11
22509.411844
 21
6409.754761
 31
0.0
  0
LINE
  5
340
100
AcDbEntity
  8
EXTLJ
 62
     5
100
AcDbLine
 10
26367.499044
 20
6643.726761
 30
0.0
 11
22810.747844
 21
6339.409161
 31
0.0
  0
LINE
  5
341
100
AcDbEntity
  8
EXTLJ
 62
     5
100
AcDbLine
 10
22944.779844
 20
6421.897961
 30
0.0
 11
22944.779844
 21
6421.900361
 31
0.0
  0
LINE
  5
342
100
AcDbEntity
  8
EXTLJ
 62
     5
100
AcDbLine
 10
22810.729478
 20
6339.614915
 30
0.0
 11
22811.051844
 21
6335.422761
 31
0.0
  0
LINE
  5
343
100
AcDbEntity
  8
EXTLJ
 62
     5
100
AcDbLine
 10
26502.497016
 20
6655.833161
 30
0.0
 11
26646.496644
 21
6655.833161
 31
0.0
  0
LINE
  5
344
100
AcDbEntity
  8
EXTLJ
 62
     5
100
AcDbLine
 10
26620.097444
 20
6639.827561
 30
0.0
 11
26622.497444
 21
6648.785161
 31
0.0
  0
LINE
  5
345
100
AcDbEntity
  8
EXTLJ
 62
     5
100
AcDbLine
 10
26622.495844
 20
6655.833161
 30
0.0
 11
26622.495844
 21
6648.785961
 31
0.0
  0
LINE
  5
346
100
AcDbEntity
  8
EXTLJ
 62
     5
100
AcDbLine
 10
26502.501833
 20
6655.826761
 30
0.0
 11
26417.502244
 21
6631.825161
 31
0.0
  0
LINE
  5
347
100
AcDbEntity
  8
EXTLJ
 62
     5
100
AcDbLine
 10
26582.495844
 20
6655.833161
 30
0.0
 11
26582.495844
 21
6648.785961
 31
0.0
  0
LINE
  5
348
100
AcDbEntity
  8
EXTLJ
 62
     5
100
AcDbLine
 10
26584.897444
 20
6639.827561
 30
0.0
 11
26582.497444
 21
6648.785161
 31
0.0
  0
LINE
  5
349
100
AcDbEntity
  8
EXTLJ
 62
     5
100
AcDbLine
 10
26417.500644
 20
6631.833161
 30
0.0
 11
26367.500644
 21
6631.833161
 31
0.0
  0
LINE
  5
34A
100
AcDbEntity
  8
EXTLJ
 62
     5
100
AcDbLine
 10
26584.895844
 20
6639.829161
 30
0.0
 11
26620.095844
 21
6639.829161
 31
0.0
  0
LINE
  5
34B
100
AcDbEntity
  8
EXTLJ
  6
CENTER
 62
     5
100
AcDbLine
 10
22320.024939
 20
6759.831811
 30
0.0
 11
26713.441444
 21
6759.831811
 31
0.0
  0
LINE
  5
34C
100
AcDbEntity
  8
EXTLJ
 62
     5
100
AcDbLine
 10
22606.523844
 20
7123.716361
 30
0.0
 11
26367.499044
 21
6803.720201
 31
0.0
  0
LINE
  5
34D
100
AcDbEntity
  8
EXTLJ
 62
     5
100
AcDbLine
 10
22783.331844
 20
6759.836639
 30
0.0
 11
22671.534147
 21
7118.725173
 31
0.0
  0
LINE
  5
34E
100
AcDbEntity
  8
EXTLJ
 62
     5
100
AcDbLine
 10
22611.635844
 20
7199.545961
 30
0.0
 11
22811.051844
 21
7184.235561
 31
0.0
  0
LINE
  5
34F
100
AcDbEntity
  8
EXTLJ
 62
     5
100
AcDbLine
 10
22801.219844
 20
6817.259721
 30
0.0
 11
22708.189897
 21
7115.910915
 31
0.0
  0
LINE
  5
350
100
AcDbEntity
  8
EXTLJ
 62
     5
100
AcDbLine
 10
22566.483844
 20
7201.828361
 30
0.0
 11
22509.411844
 21
7209.749161
 31
0.0
  0
ARC
  5
351
100
AcDbEntity
  8
EXTLJ
 62
     5
100
AcDbCircle
 10
22502.475844
 20
7159.824361
 30
0.0
 40
50.39992
100
AcDbArc
 50
82.098014
 51
277.902004
  0
LINE
  5
352
100
AcDbEntity
  8
EXTLJ
 62
     5
100
AcDbLine
 10
22566.491844
 20
7201.827561
 30
0.0
 11
22611.611844
 21
7201.827561
 31
0.0
  0
LINE
  5
353
100
AcDbEntity
  8
EXTLJ
 62
     5
100
AcDbLine
 10
22611.611844
 20
7201.827561
 30
0.0
 11
22611.611844
 21
7199.549161
 31
0.0
  0
LINE
  5
354
100
AcDbEntity
  8
EXTLJ
 62
     5
100
AcDbLine
 10
22611.635844
 20
7199.545961
 30
0.0
 11
22611.323844
 21
7195.557161
 31
0.0
  0
LINE
  5
355
100
AcDbEntity
  8
EXTLJ
 62
     5
100
AcDbLine
 10
22566.491844
 20
7117.827561
 30
0.0
 11
22606.491844
 21
7117.827561
 31
0.0
  0
LINE
  5
356
100
AcDbEntity
  8
EXTLJ
 62
     5
100
AcDbLine
 10
22566.491844
 20
7117.827561
 30
0.0
 11
22509.419844
 21
7109.906761
 31
0.0
  0
POINT
  5
357
100
AcDbEntity
  8
EXTLJ
 62
     5
100
AcDbPoint
 10
22502.499844
 20
6759.831811
 30
0.0
  0
LINE
  5
358
100
AcDbEntity
  8
EXTLJ
 62
     5
100
AcDbLine
 10
22606.491844
 20
7201.827561
 30
0.0
 11
22606.491844
 21
7117.827561
 31
0.0
  0
LINE
  5
359
100
AcDbEntity
  8
EXTLJ
 62
     5
100
AcDbLine
 10
22566.491844
 20
7201.827561
 30
0.0
 11
22566.491844
 21
7117.827561
 31
0.0
  0
CIRCLE
  5
35A
100
AcDbEntity
  8
EXTLJ
 62
     5
100
AcDbCircle
 10
22502.499844
 20
7159.827561
 30
0.0
 40
24.0
  0
LINE
  5
35B
100
AcDbEntity
  8
EXTLJ
 62
     5
100
AcDbLine
 10
22810.747844
 20
7180.246761
 30
0.0
 11
26367.499044
 21
6875.929961
 31
0.0
  0
LINE
  5
35C
100
AcDbEntity
  8
EXTLJ
 62
     5
100
AcDbLine
 10
22804.427844
 20
7108.522761
 30
0.0
 11
22804.115844
 21
7104.534761
 31
0.0
  0
LINE
  5
35D
100
AcDbEntity
  8
EXTLJ
 62
     5
100
AcDbLine
 10
22811.051844
 20
7184.235561
 30
0.0
 11
22809.763844
 21
7167.485161
 31
0.0
  0
LINE
  5
35E
100
AcDbEntity
  8
EXTLJ
 62
     5
100
AcDbLine
 10
25250.258664
 20
6898.778693
 30
0.0
 11
25324.523844
 21
6759.82104
 31
0.0
  0
LINE
  5
35F
100
AcDbEntity
  8
EXTLJ
 62
     5
100
AcDbLine
 10
25290.832097
 20
6895.326571
 30
0.0
 11
25343.891844
 21
6796.056361
 31
0.0
  0
LINE
  5
360
100
AcDbEntity
  8
EXTLJ
 62
     5
100
AcDbLine
 10
26627.697444
 20
6899.827561
 30
0.0
 11
26628.497444
 21
6899.027561
 31
0.0
  0
LINE
  5
361
100
AcDbEntity
  8
EXTLJ
 62
     5
100
AcDbLine
 10
26502.497016
 20
6863.828361
 30
0.0
 11
26646.496644
 21
6863.828361
 31
0.0
  0
LINE
  5
362
100
AcDbEntity
  8
EXTLJ
 62
     5
100
AcDbLine
 10
26502.497016
 20
6823.828441
 30
0.0
 11
26642.496644
 21
6823.828441
 31
0.0
  0
LINE
  5
363
100
AcDbEntity
  8
EXTLJ
 62
     5
100
AcDbLine
 10
26502.497016
 20
6695.833161
 30
0.0
 11
26642.497444
 21
6695.833161
 31
0.0
  0
LINE
  5
364
100
AcDbEntity
  8
EXTLJ
 62
     5
100
AcDbLine
 10
26095.654644
 20
6904.821961
 30
0.0
 11
26095.041844
 21
6896.845961
 31
0.0
  0
LINE
  5
365
100
AcDbEntity
  8
EXTLJ
 62
     5
100
AcDbLine
 10
26626.497444
 20
6909.427561
 30
0.0
 11
26624.097444
 21
6911.827561
 31
0.0
  0
LINE
  5
366
100
AcDbEntity
  8
EXTLJ
 62
     5
100
AcDbLine
 10
26626.495844
 20
6909.428361
 30
0.0
 11
26626.495844
 21
6899.828361
 31
0.0
  0
LINE
  5
367
100
AcDbEntity
  8
EXTLJ
 62
     5
100
AcDbLine
 10
26417.497444
 20
6887.825961
 30
0.0
 11
26502.49777
 21
6863.823561
 31
0.0
  0
LINE
  5
368
100
AcDbEntity
  8
EXTLJ
 62
     5
100
AcDbLine
 10
26576.497044
 20
6899.027561
 30
0.0
 11
26576.497044
 21
6863.828361
 31
0.0
  0
LINE
  5
369
100
AcDbEntity
  8
EXTLJ
 62
     5
100
AcDbLine
 10
26542.497524
 20
6819.827561
 30
0.0
 11
26546.497524
 21
6823.827481
 31
0.0
  0
LINE
  5
36A
100
AcDbEntity
  8
EXTLJ
 62
     5
100
AcDbLine
 10
26542.497124
 20
6819.828281
 30
0.0
 11
26542.497124
 21
6809.791881
 31
0.0
  0
LINE
  5
36B
100
AcDbEntity
  8
EXTLJ
 62
     5
100
AcDbLine
 10
26578.497284
 20
6909.427561
 30
0.0
 11
26580.897204
 21
6911.827561
 31
0.0
  0
LINE
  5
36C
100
AcDbEntity
  8
EXTLJ
 62
     5
100
AcDbLine
 10
26578.496244
 20
6909.428361
 30
0.0
 11
26578.496244
 21
6899.828361
 31
0.0
  0
LINE
  5
36D
100
AcDbEntity
  8
EXTLJ
 62
     5
100
AcDbLine
 10
26576.497524
 20
6899.027561
 30
0.0
 11
26577.297444
 21
6899.827561
 31
0.0
  0
LINE
  5
36E
100
AcDbEntity
  8
EXTLJ
 62
     5
100
AcDbLine
 10
26542.497684
 20
6699.832521
 30
0.0
 11
26546.497684
 21
6695.832601
 31
0.0
  0
LINE
  5
36F
100
AcDbEntity
  8
EXTLJ
 62
     5
100
AcDbLine
 10
26542.497124
 20
6709.872361
 30
0.0
 11
26542.497124
 21
6699.833641
 31
0.0
  0
ARC
  5
370
100
AcDbEntity
  8
EXTLJ
 62
     5
100
AcDbCircle
 10
26502.495649
 20
6759.832361
 30
0.0
 40
63.99992
100
AcDbArc
 50
308.681986
 51
51.317824
  0
ARC
  5
371
100
AcDbEntity
  8
EXTLJ
 62
     5
100
AcDbCircle
 10
26502.495844
 20
6759.832361
 30
0.0
 40
64.0
100
AcDbArc
 50
89.629793
 51
270.000001
  0
LINE
  5
372
100
AcDbEntity
  8
EXTLJ
 62
     5
100
AcDbLine
 10
26367.500644
 20
6887.828361
 30
0.0
 11
26417.500644
 21
6887.828361
 31
0.0
  0
CIRCLE
  5
373
100
AcDbEntity
  8
EXTLJ
 62
     5
100
AcDbCircle
 10
26502.497016
 20
6963.828361
 30
0.0
 40
25.0
  0
LINE
  5
374
100
AcDbEntity
  8
EXTLJ
 62
     5
100
AcDbLine
 10
26394.528888
 20
6887.828361
 30
0.0
 11
26460.376916
 21
6990.770839
 31
0.0
  0
LINE
  5
375
100
AcDbEntity
  8
EXTLJ
 62
     5
100
AcDbLine
 10
26569.301112
 20
6863.828361
 30
0.0
 11
26551.856995
 21
6971.802848
 31
0.0
  0
ARC
  5
376
100
AcDbEntity
  8
EXTLJ
 62
     5
100
AcDbCircle
 10
26502.497016
 20
6963.828361
 30
0.0
 40
50.0
100
AcDbArc
 50
9.177281
 51
147.394641
  0
LINE
  5
377
100
AcDbEntity
  8
EXTLJ
 62
     5
100
AcDbLine
 10
26577.296004
 20
6899.828361
 30
0.0
 11
26627.695844
 21
6899.828361
 31
0.0
  0
LINE
  5
378
100
AcDbEntity
  8
EXTLJ
 62
     5
100
AcDbLine
 10
26580.896004
 20
6911.828361
 30
0.0
 11
26624.095844
 21
6911.828361
 31
0.0
  0
POINT
  5
379
100
AcDbEntity
  8
EXTLJ
 62
     5
100
AcDbPoint
 10
26502.497016
 20
6759.831811
 30
0.0
  0
LINE
  5
37A
100
AcDbEntity
  8
EXTLJ
 62
     5
100
AcDbLine
 10
26658.496644
 20
6816.231801
 30
0.0
 11
26642.497444
 21
6816.231801
 31
0.0
  0
LINE
  5
37B
100
AcDbEntity
  8
EXTLJ
 62
     5
100
AcDbLine
 10
26658.496644
 20
6805.831561
 30
0.0
 11
26642.497444
 21
6805.831561
 31
0.0
  0
LINE
  5
37C
100
AcDbEntity
  8
EXTLJ
 62
     5
100
AcDbLine
 10
26658.496644
 20
6703.432201
 30
0.0
 11
26642.497444
 21
6703.432201
 31
0.0
  0
LINE
  5
37D
100
AcDbEntity
  8
EXTLJ
 62
     5
100
AcDbLine
 10
26658.496644
 20
6713.832041
 30
0.0
 11
26642.497444
 21
6713.832041
 31
0.0
  0
LINE
  5
37E
100
AcDbEntity
  8
EXTLJ
 62
     5
100
AcDbLine
 10
26628.496644
 20
6899.027561
 30
0.0
 11
26628.496644
 21
6863.828361
 31
0.0
  0
LINE
  5
37F
100
AcDbEntity
  8
EXTLJ
 62
     5
100
AcDbLine
 10
26646.507844
 20
6827.819241
 30
0.0
 11
26638.506244
 21
6823.818681
 31
0.0
  0
LINE
  5
380
100
AcDbEntity
  8
EXTLJ
 62
     5
100
AcDbLine
 10
26646.496644
 20
6863.828361
 30
0.0
 11
26646.496644
 21
6827.828361
 31
0.0
  0
LINE
  5
381
100
AcDbEntity
  8
EXTLJ
 62
     5
100
AcDbLine
 10
26638.506244
 20
6695.844921
 30
0.0
 11
26646.507844
 21
6691.844361
 31
0.0
  0
LINE
  5
382
100
AcDbEntity
  8
EXTLJ
 62
     5
100
AcDbLine
 10
26642.497444
 20
6823.828521
 30
0.0
 11
26642.497444
 21
6695.833641
 31
0.0
  0
ARC
  5
383
100
AcDbEntity
  8
EXTLJ
 62
     5
100
AcDbCircle
 10
26658.495844
 20
6781.832281
 30
0.0
 40
34.4
100
AcDbArc
 50
0.0
 51
89.999981
  0
ARC
  5
384
100
AcDbEntity
  8
EXTLJ
 62
     5
100
AcDbCircle
 10
26658.495844
 20
6781.832281
 30
0.0
 40
24.0
100
AcDbArc
 50
0.0
 51
89.999981
  0
ARC
  5
385
100
AcDbEntity
  8
EXTLJ
 62
     5
100
AcDbCircle
 10
26658.495844
 20
6737.832201
 30
0.0
 40
34.4
100
AcDbArc
 50
270.000001
 51
0.0
  0
ARC
  5
386
100
AcDbEntity
  8
EXTLJ
 62
     5
100
AcDbCircle
 10
26658.495844
 20
6737.832201
 30
0.0
 40
24.0
100
AcDbArc
 50
270.000001
 51
0.0
  0
LINE
  5
387
100
AcDbEntity
  8
EXTLJ
 62
     5
100
AcDbLine
 10
26692.897444
 20
6781.832201
 30
0.0
 11
26692.897444
 21
6737.832281
 31
0.0
  0
LINE
  5
388
100
AcDbEntity
  8
EXTLJ
 62
     5
100
AcDbLine
 10
26682.497444
 20
6781.832201
 30
0.0
 11
26682.497444
 21
6737.832361
 31
0.0
  0
LINE
  5
389
100
AcDbEntity
  8
EXTLJ
  6
CENTER
 62
     5
100
AcDbLine
 10
12612.788765
 20
6877.661724
 30
0.0
 11
17888.662567
 21
6877.662576
 31
0.0
  0
LINE
  5
38A
100
AcDbEntity
  8
EXTLJ
 62
     5
100
AcDbLine
 10
13086.121356
 20
6441.668924
 30
0.0
 11
17468.521356
 21
6441.668924
 31
0.0
  0
LINE
  5
38B
100
AcDbEntity
  8
EXTLJ
 62
     5
100
AcDbLine
 10
12881.321356
 20
6513.668124
 30
0.0
 11
17673.321356
 21
6513.668124
 31
0.0
  0
LINE
  5
38C
100
AcDbEntity
  8
EXTLJ
 62
     5
100
AcDbLine
 10
17673.321356
 20
7241.658524
 30
0.0
 11
12881.321356
 21
7241.658524
 31
0.0
  0
LINE
  5
38D
100
AcDbEntity
  8
EXTLJ
 62
     5
100
AcDbLine
 10
17468.521356
 20
7313.655324
 30
0.0
 11
13086.121356
 21
7313.655324
 31
0.0
  0
LINE
  5
38E
100
AcDbEntity
  8
EXTLJ
 62
     5
100
AcDbLine
 10
13005.074652
 20
6513.668124
 30
0.0
 11
13269.486905
 21
7241.658524
 31
0.0
  0
LINE
  5
38F
100
AcDbEntity
  8
EXTLJ
 62
     5
100
AcDbLine
 10
12966.39628
 20
6513.668124
 30
0.0
 11
13230.728091
 21
7241.658524
 31
0.0
  0
LINE
  5
390
100
AcDbEntity
  8
EXTLJ
 62
     5
100
AcDbLine
 10
12936.114138
 20
7241.658524
 30
0.0
 11
12936.114138
 21
6513.668124
 31
0.0
  0
LINE
  5
391
100
AcDbEntity
  8
EXTLJ
 62
     5
100
AcDbLine
 10
12899.738324
 20
7241.658524
 30
0.0
 11
12899.738324
 21
6513.668124
 31
0.0
  0
LINE
  5
392
100
AcDbEntity
  8
EXTLJ
 62
     5
100
AcDbLine
 10
13117.908021
 20
6930.933806
 30
0.0
 11
13005.071832
 21
7241.658524
 31
0.0
  0
LINE
  5
393
100
AcDbEntity
  8
EXTLJ
 62
     5
100
AcDbLine
 10
13098.570058
 20
6877.657091
 30
0.0
 11
12966.395166
 21
7241.658524
 31
0.0
  0
LINE
  5
394
100
AcDbEntity
  8
EXTLJ
  6
CENTER
 62
     5
100
AcDbLine
 10
12777.321356
 20
7384.691166
 30
0.0
 11
12777.321356
 21
6357.278866
 31
0.0
  0
CIRCLE
  5
395
100
AcDbEntity
  8
EXTLJ
 62
     5
100
AcDbCircle
 10
12777.321356
 20
6477.668124
 30
0.0
 40
24.0
  0
ARC
  5
396
100
AcDbEntity
  8
EXTLJ
 62
     5
100
AcDbCircle
 10
12777.321356
 20
6477.672924
 30
0.0
 40
50.40008
100
AcDbArc
 50
82.097022
 51
277.902903
  0
POINT
  5
397
100
AcDbEntity
  8
EXTLJ
 62
     5
100
AcDbPoint
 10
12777.321356
 20
6877.661724
 30
0.0
  0
LINE
  5
398
100
AcDbEntity
  8
EXTLJ
 62
     5
100
AcDbLine
 10
13269.482926
 20
6513.668124
 30
0.0
 11
13137.245983
 21
6877.654912
 31
0.0
  0
LINE
  5
399
100
AcDbEntity
  8
EXTLJ
 62
     5
100
AcDbLine
 10
13230.805475
 20
6513.668124
 30
0.0
 11
13117.908021
 21
6824.378227
 31
0.0
  0
LINE
  5
39A
100
AcDbEntity
  8
EXTLJ
 62
     5
100
AcDbLine
 10
12886.121356
 20
6437.668924
 30
0.0
 11
13086.121356
 21
6437.668924
 31
0.0
  0
LINE
  5
39B
100
AcDbEntity
  8
EXTLJ
 62
     5
100
AcDbLine
 10
12881.321356
 20
6441.668924
 30
0.0
 11
12886.121356
 21
6441.668924
 31
0.0
  0
LINE
  5
39C
100
AcDbEntity
  8
EXTLJ
 62
     5
100
AcDbLine
 10
12881.321356
 20
6519.668124
 30
0.0
 11
12881.321356
 21
6435.668924
 31
0.0
  0
LINE
  5
39D
100
AcDbEntity
  8
EXTLJ
 62
     5
100
AcDbLine
 10
12886.121356
 20
6441.668924
 30
0.0
 11
12886.121356
 21
6437.668924
 31
0.0
  0
LINE
  5
39E
100
AcDbEntity
  8
EXTLJ
 62
     5
100
AcDbLine
 10
13086.121356
 20
6441.668924
 30
0.0
 11
13086.121356
 21
6437.668924
 31
0.0
  0
LINE
  5
39F
100
AcDbEntity
  8
EXTLJ
 62
     5
100
AcDbLine
 10
12841.321356
 20
6519.668124
 30
0.0
 11
12841.321356
 21
6435.668924
 31
0.0
  0
LINE
  5
3A0
100
AcDbEntity
  8
EXTLJ
 62
     5
100
AcDbLine
 10
12841.321356
 20
6519.669724
 30
0.0
 11
12784.201356
 21
6527.590524
 31
0.0
  0
LINE
  5
3A1
100
AcDbEntity
  8
EXTLJ
 62
     5
100
AcDbLine
 10
12841.321356
 20
6435.668924
 30
0.0
 11
12784.201356
 21
6427.748124
 31
0.0
  0
LINE
  5
3A2
100
AcDbEntity
  8
EXTLJ
 62
     5
100
AcDbLine
 10
12841.321356
 20
6435.668924
 30
0.0
 11
12881.321356
 21
6435.668924
 31
0.0
  0
LINE
  5
3A3
100
AcDbEntity
  8
EXTLJ
 62
     5
100
AcDbLine
 10
12841.321356
 20
6519.668124
 30
0.0
 11
12881.321356
 21
6519.668124
 31
0.0
  0
CIRCLE
  5
3A4
100
AcDbEntity
  8
EXTLJ
 62
     5
100
AcDbCircle
 10
12777.321356
 20
7277.661724
 30
0.0
 40
24.0
  0
ARC
  5
3A5
100
AcDbEntity
  8
EXTLJ
 62
     5
100
AcDbCircle
 10
12777.321356
 20
7277.665724
 30
0.0
 40
50.40008
100
AcDbArc
 50
82.097022
 51
277.902903
  0
LINE
  5
3A6
100
AcDbEntity
  8
EXTLJ
 62
     5
100
AcDbLine
 10
13086.121356
 20
7317.655324
 30
0.0
 11
12886.121356
 21
7317.655324
 31
0.0
  0
LINE
  5
3A7
100
AcDbEntity
  8
EXTLJ
 62
     5
100
AcDbLine
 10
12881.321356
 20
7319.658524
 30
0.0
 11
12881.321356
 21
7235.661724
 31
0.0
  0
LINE
  5
3A8
100
AcDbEntity
  8
EXTLJ
 62
     5
100
AcDbLine
 10
12886.121356
 20
7241.658524
 30
0.0
 11
12886.121356
 21
7237.658524
 31
0.0
  0
LINE
  5
3A9
100
AcDbEntity
  8
EXTLJ
 62
     5
100
AcDbLine
 10
12886.121356
 20
7313.655324
 30
0.0
 11
12881.321356
 21
7313.655324
 31
0.0
  0
LINE
  5
3AA
100
AcDbEntity
  8
EXTLJ
 62
     5
100
AcDbLine
 10
12886.121356
 20
7317.655324
 30
0.0
 11
12886.121356
 21
7313.655324
 31
0.0
  0
LINE
  5
3AB
100
AcDbEntity
  8
EXTLJ
 62
     5
100
AcDbLine
 10
13086.121356
 20
7317.655324
 30
0.0
 11
13086.121356
 21
7313.655324
 31
0.0
  0
LINE
  5
3AC
100
AcDbEntity
  8
EXTLJ
 62
     5
100
AcDbLine
 10
12841.321356
 20
7319.658524
 30
0.0
 11
12841.321356
 21
7235.661724
 31
0.0
  0
LINE
  5
3AD
100
AcDbEntity
  8
EXTLJ
 62
     5
100
AcDbLine
 10
12841.321356
 20
7319.662524
 30
0.0
 11
12784.201356
 21
7327.583324
 31
0.0
  0
LINE
  5
3AE
100
AcDbEntity
  8
EXTLJ
 62
     5
100
AcDbLine
 10
12841.321356
 20
7235.661724
 30
0.0
 11
12784.201356
 21
7227.740924
 31
0.0
  0
LINE
  5
3AF
100
AcDbEntity
  8
EXTLJ
 62
     5
100
AcDbLine
 10
12841.321356
 20
7235.661724
 30
0.0
 11
12881.321356
 21
7235.661724
 31
0.0
  0
LINE
  5
3B0
100
AcDbEntity
  8
EXTLJ
 62
     5
100
AcDbLine
 10
12841.321356
 20
7319.658524
 30
0.0
 11
12881.321356
 21
7319.658524
 31
0.0
  0
ARC
  5
3B1
100
AcDbEntity
  8
EXTLJ
 62
     5
100
AcDbCircle
 10
17777.321356
 20
6477.663324
 30
0.0
 40
50.40008
100
AcDbArc
 50
262.097022
 51
97.902903
  0
CIRCLE
  5
3B2
100
AcDbEntity
  8
EXTLJ
 62
     5
100
AcDbCircle
 10
17777.321356
 20
6477.664124
 30
0.0
 40
24.0
  0
POINT
  5
3B3
100
AcDbEntity
  8
EXTLJ
 62
     5
100
AcDbPoint
 10
17777.321356
 20
6877.662576
 30
0.0
  0
ARC
  5
3B4
100
AcDbEntity
  8
EXTLJ
 62
     5
100
AcDbCircle
 10
17777.321356
 20
7277.661724
 30
0.0
 40
50.40008
100
AcDbArc
 50
262.097022
 51
97.902903
  0
CIRCLE
  5
3B5
100
AcDbEntity
  8
EXTLJ
 62
     5
100
AcDbCircle
 10
17777.321356
 20
7277.657724
 30
0.0
 40
24.0
  0
LINE
  5
3B6
100
AcDbEntity
  8
EXTLJ
 62
     5
100
AcDbLine
 10
17654.989578
 20
6513.668124
 30
0.0
 11
17654.989578
 21
7241.658524
 31
0.0
  0
LINE
  5
3B7
100
AcDbEntity
  8
EXTLJ
 62
     5
100
AcDbLine
 10
17618.613764
 20
6513.668124
 30
0.0
 11
17618.613764
 21
7241.658524
 31
0.0
  0
LINE
  5
3B8
100
AcDbEntity
  8
EXTLJ
 62
     5
100
AcDbLine
 10
17588.607921
 20
6513.668124
 30
0.0
 11
17332.849045
 21
7241.658524
 31
0.0
  0
LINE
  5
3B9
100
AcDbEntity
  8
EXTLJ
 62
     5
100
AcDbLine
 10
17550.09978
 20
6513.668124
 30
0.0
 11
17294.260905
 21
7241.658524
 31
0.0
  0
LINE
  5
3BA
100
AcDbEntity
  8
EXTLJ
 62
     5
100
AcDbLine
 10
17588.32994
 20
7241.658524
 30
0.0
 11
17456.157844
 21
6877.665392
 31
0.0
  0
LINE
  5
3BB
100
AcDbEntity
  8
EXTLJ
 62
     5
100
AcDbLine
 10
17441.433378
 20
6932.528293
 30
0.0
 11
17550.097429
 21
7241.658524
 31
0.0
  0
LINE
  5
3BC
100
AcDbEntity
  8
EXTLJ
  6
CENTER
 62
     5
100
AcDbLine
 10
17777.321356
 20
7384.692017
 30
0.0
 11
17777.321356
 21
6357.279717
 31
0.0
  0
LINE
  5
3BD
100
AcDbEntity
  8
EXTLJ
 62
     5
100
AcDbLine
 10
17294.26054
 20
6513.668124
 30
0.0
 11
17422.180605
 21
6877.664798
 31
0.0
  0
LINE
  5
3BE
100
AcDbEntity
  8
EXTLJ
 62
     5
100
AcDbLine
 10
17332.846989
 20
6513.668124
 30
0.0
 11
17441.433378
 21
6822.799329
 31
0.0
  0
LINE
  5
3BF
100
AcDbEntity
  8
EXTLJ
 62
     5
100
AcDbLine
 10
17468.521356
 20
6437.668924
 30
0.0
 11
17668.521356
 21
6437.668924
 31
0.0
  0
LINE
  5
3C0
100
AcDbEntity
  8
EXTLJ
 62
     5
100
AcDbLine
 10
17468.521356
 20
6437.668924
 30
0.0
 11
17468.521356
 21
6441.668924
 31
0.0
  0
LINE
  5
3C1
100
AcDbEntity
  8
EXTLJ
 62
     5
100
AcDbLine
 10
17668.521356
 20
6437.668924
 30
0.0
 11
17668.521356
 21
6441.668924
 31
0.0
  0
LINE
  5
3C2
100
AcDbEntity
  8
EXTLJ
 62
     5
100
AcDbLine
 10
17713.321356
 20
6435.668924
 30
0.0
 11
17713.321356
 21
6519.668124
 31
0.0
  0
LINE
  5
3C3
100
AcDbEntity
  8
EXTLJ
 62
     5
100
AcDbLine
 10
17668.521356
 20
6441.668924
 30
0.0
 11
17673.321356
 21
6441.668924
 31
0.0
  0
LINE
  5
3C4
100
AcDbEntity
  8
EXTLJ
 62
     5
100
AcDbLine
 10
17673.321356
 20
6435.668924
 30
0.0
 11
17673.321356
 21
6519.668124
 31
0.0
  0
LINE
  5
3C5
100
AcDbEntity
  8
EXTLJ
 62
     5
100
AcDbLine
 10
17673.321356
 20
6519.668124
 30
0.0
 11
17713.321356
 21
6519.668124
 31
0.0
  0
LINE
  5
3C6
100
AcDbEntity
  8
EXTLJ
 62
     5
100
AcDbLine
 10
17673.321356
 20
6435.668924
 30
0.0
 11
17713.321356
 21
6435.668924
 31
0.0
  0
LINE
  5
3C7
100
AcDbEntity
  8
EXTLJ
 62
     5
100
AcDbLine
 10
17713.321356
 20
6435.667324
 30
0.0
 11
17770.441356
 21
6427.745724
 31
0.0
  0
LINE
  5
3C8
100
AcDbEntity
  8
EXTLJ
 62
     5
100
AcDbLine
 10
17713.321356
 20
6519.663324
 30
0.0
 11
17770.441356
 21
6527.584924
 31
0.0
  0
LINE
  5
3C9
100
AcDbEntity
  8
EXTLJ
 62
     5
100
AcDbLine
 10
17668.521356
 20
7317.655324
 30
0.0
 11
17468.521356
 21
7317.655324
 31
0.0
  0
LINE
  5
3CA
100
AcDbEntity
  8
EXTLJ
 62
     5
100
AcDbLine
 10
17468.521356
 20
7313.655324
 30
0.0
 11
17468.521356
 21
7317.655324
 31
0.0
  0
LINE
  5
3CB
100
AcDbEntity
  8
EXTLJ
 62
     5
100
AcDbLine
 10
17668.521356
 20
7313.655324
 30
0.0
 11
17668.521356
 21
7317.655324
 31
0.0
  0
LINE
  5
3CC
100
AcDbEntity
  8
EXTLJ
 62
     5
100
AcDbLine
 10
17673.321356
 20
7313.655324
 30
0.0
 11
17668.521356
 21
7313.655324
 31
0.0
  0
LINE
  5
3CD
100
AcDbEntity
  8
EXTLJ
 62
     5
100
AcDbLine
 10
17673.321356
 20
7319.658524
 30
0.0
 11
17713.321356
 21
7319.658524
 31
0.0
  0
LINE
  5
3CE
100
AcDbEntity
  8
EXTLJ
 62
     5
100
AcDbLine
 10
17673.321356
 20
7235.661724
 30
0.0
 11
17713.321356
 21
7235.661724
 31
0.0
  0
LINE
  5
3CF
100
AcDbEntity
  8
EXTLJ
 62
     5
100
AcDbLine
 10
17713.321356
 20
7235.661724
 30
0.0
 11
17713.321356
 21
7319.658524
 31
0.0
  0
LINE
  5
3D0
100
AcDbEntity
  8
EXTLJ
 62
     5
100
AcDbLine
 10
17673.321356
 20
7235.661724
 30
0.0
 11
17673.321356
 21
7319.658524
 31
0.0
  0
LINE
  5
3D1
100
AcDbEntity
  8
EXTLJ
 62
     5
100
AcDbLine
 10
17713.321356
 20
7319.665724
 30
0.0
 11
17770.441356
 21
7327.586524
 31
0.0
  0
LINE
  5
3D2
100
AcDbEntity
  8
EXTLJ
 62
     5
100
AcDbLine
 10
17713.321356
 20
7235.664924
 30
0.0
 11
17770.441356
 21
7227.744124
 31
0.0
  0
LINE
  5
3D3
100
AcDbEntity
  8
LJIB
 62
     5
100
AcDbLine
 10
8507.930215
 20
7359.774508
 30
0.0
 11
5606.730215
 21
7152.033575
 31
0.0
  0
LINE
  5
3D4
100
AcDbEntity
  8
LJIB
 62
     5
100
AcDbLine
 10
8507.930215
 20
6513.367308
 30
0.0
 11
5606.730215
 21
6721.10824
 31
0.0
  0
LINE
  5
3D5
100
AcDbEntity
  8
LJIB
 62
     5
100
AcDbLine
 10
8712.330215
 20
6572.646508
 30
0.0
 11
6093.210215
 21
6737.467308
 31
0.0
  0
LINE
  5
3D6
100
AcDbEntity
  8
LJIB
 62
     5
100
AcDbLine
 10
8712.330215
 20
7300.494508
 30
0.0
 11
6093.210215
 21
7135.672108
 31
0.0
  0
LINE
  5
3D7
100
AcDbEntity
  8
LJIB
  6
CENTER
 62
     5
100
AcDbLine
 10
4357.690215
 20
6936.577958
 30
0.0
 11
9056.816308
 21
6936.577958
 31
0.0
  0
LINE
  5
3D8
100
AcDbEntity
  8
LJIB
 62
     5
100
AcDbLine
 10
4999.530215
 20
6579.260108
 30
0.0
 11
5288.410215
 21
6746.030508
 31
0.0
  0
LINE
  5
3D9
100
AcDbEntity
  8
EXTLJ
 62
     5
100
AcDbLine
 10
5606.730215
 20
7164.577708
 30
0.0
 11
5029.901681
 21
7254.349777
 31
0.0
  0
LINE
  5
3DA
100
AcDbEntity
  8
LJIB
 62
     5
100
AcDbLine
 10
5606.730215
 20
6722.140908
 30
0.0
 11
5277.050215
 21
6746.866508
 31
0.0
  0
LINE
  5
3DB
100
AcDbEntity
  8
EXTLJ
 62
     5
100
AcDbLine
 10
5606.730215
 20
7152.033575
 30
0.0
 11
4449.930215
 21
7071.142239
 31
0.0
  0
ARC
  5
3DC
100
AcDbEntity
  8
LJIB
 62
     5
100
AcDbCircle
 10
4816.330215
 20
6896.574828
 30
0.0
 40
366.4
100
AcDbArc
 50
180.00002
 51
300.000014
  0
LINE
  5
3DD
100
AcDbEntity
  8
LJIB
 62
     5
100
AcDbLine
 10
4449.930215
 20
7071.142239
 30
0.0
 11
4449.930215
 21
6896.574828
 31
0.0
  0
LINE
  5
3DE
100
AcDbEntity
  8
LJIB
  6
CENTER
 62
     5
100
AcDbLine
 10
4816.330215
 20
7206.529958
 30
0.0
 11
4816.330215
 21
6640.336358
 31
0.0
  0
POINT
  5
3DF
100
AcDbEntity
  8
EXTLJ
 62
     5
100
AcDbPoint
 10
4816.330215
 20
6936.577958
 30
0.0
  0
CIRCLE
  5
3E0
100
AcDbEntity
  8
EXTLJ
  6
CENTER
 62
     5
100
AcDbCircle
 10
4816.330215
 20
6936.577958
 30
0.0
 40
287.0
  0
LINE
  5
3E1
100
AcDbEntity
  8
LJIB
 62
     5
100
AcDbLine
 10
5277.050215
 20
6746.880108
 30
0.0
 11
5280.250215
 21
6741.337708
 31
0.0
  0
LINE
  5
3E2
100
AcDbEntity
  8
EXTLJ
 62
     5
100
AcDbLine
 10
4816.330215
 20
7086.529708
 30
0.0
 11
5005.863351
 21
7247.568623
 31
0.0
  0
LINE
  5
3E3
100
AcDbEntity
  8
LJIB
  6
CENTER
 62
     5
100
AcDbLine
 10
4541.130215
 20
6936.577958
 30
0.0
 11
5188.170215
 21
6936.577958
 31
0.0
  0
LINE
  5
3E4
100
AcDbEntity
  8
LJIB
 62
     5
100
AcDbLine
 10
5083.050215
 20
7201.927308
 30
0.0
 11
5085.212057
 21
7195.895143
 31
0.0
  0
ARC
  5
3E5
100
AcDbEntity
  8
EXTLJ
 62
     5
100
AcDbCircle
 10
5025.288304
 20
7224.70662
 30
0.0
 40
30.0
100
AcDbArc
 50
81.153997
 51
130.353259
  0
LINE
  5
3E6
100
AcDbEntity
  8
EXTLJ
 62
     5
100
AcDbLine
 10
5016.330215
 20
7246.471029
 30
0.0
 11
5016.330215
 21
7256.46191
 31
0.0
  0
CIRCLE
  5
3E7
100
AcDbEntity
  8
LJIB
 62
     5
100
AcDbCircle
 10
5016.330215
 20
7186.574508
 30
0.0
 40
39.99992
  0
LINE
  5
3E8
100
AcDbEntity
  8
LJIB
  6
CENTER
 62
     5
100
AcDbLine
 10
4941.610215
 20
7186.574508
 30
0.0
 11
5077.210215
 21
7186.574508
 31
0.0
  0
LINE
  5
3E9
100
AcDbEntity
  8
LJIB
  6
CENTER
 62
     5
100
AcDbLine
 10
5016.330215
 20
7246.471029
 30
0.0
 11
5016.330215
 21
7121.484108
 31
0.0
  0
LINE
  5
3EA
100
AcDbEntity
  8
LJIB
 62
     5
100
AcDbLine
 10
5891.210215
 20
7003.592908
 30
0.0
 11
6174.090215
 21
7188.577708
 31
0.0
  0
LINE
  5
3EB
100
AcDbEntity
  8
LJIB
 62
     5
100
AcDbLine
 10
5890.170215
 20
7003.210108
 30
0.0
 11
6173.690215
 21
7188.572908
 31
0.0
  0
LINE
  5
3EC
100
AcDbEntity
  8
LJIB
 62
     5
100
AcDbLine
 10
6174.090215
 20
6684.580908
 30
0.0
 11
5891.210215
 21
6869.564108
 31
0.0
  0
LINE
  5
3ED
100
AcDbEntity
  8
LJIB
 62
     5
100
AcDbLine
 10
6173.690215
 20
6684.584108
 30
0.0
 11
5890.170215
 21
6869.950348
 31
0.0
  0
LINE
  5
3EE
100
AcDbEntity
  8
LJIB
 62
     5
100
AcDbLine
 10
5606.730215
 20
7164.577708
 30
0.0
 11
5606.730215
 21
6722.140908
 31
0.0
  0
POLYLINE
  5
3EF
100
AcDbEntity
  8
LJIB
 62
     5
100
AcDb2dPolyline
 66
     1
 10
0.0
 20
0.0
 30
0.0
  0
VERTEX
  5
C78
100
AcDbEntity
  8
LJIB
 62
     5
100
AcDbVertex
100
AcDb2dVertex
 10
5891.371366
 20
7003.727516
 30
0.0
  0
VERTEX
  5
C79
100
AcDbEntity
  8
LJIB
 62
     5
100
AcDbVertex
100
AcDb2dVertex
 10
5885.493814
 20
6999.519978
 30
0.0
  0
VERTEX
  5
C7A
100
AcDbEntity
  8
LJIB
 62
     5
100
AcDbVertex
100
AcDb2dVertex
 10
5880.019761
 20
6994.796622
 30
0.0
  0
VERTEX
  5
C7B
100
AcDbEntity
  8
LJIB
 62
     5
100
AcDbVertex
100
AcDb2dVertex
 10
5874.994067
 20
6989.596156
 30
0.0
  0
VERTEX
  5
C7C
100
AcDbEntity
  8
LJIB
 62
     5
100
AcDbVertex
100
AcDb2dVertex
 10
5870.45792
 20
6983.961198
 30
0.0
  0
VERTEX
  5
C7D
100
AcDbEntity
  8
LJIB
 62
     5
100
AcDbVertex
100
AcDb2dVertex
 10
5866.448492
 20
6977.937929
 30
0.0
  0
VERTEX
  5
C7E
100
AcDbEntity
  8
LJIB
 62
     5
100
AcDbVertex
100
AcDb2dVertex
 10
5862.998642
 20
6971.575709
 30
0.0
  0
VERTEX
  5
C7F
100
AcDbEntity
  8
LJIB
 62
     5
100
AcDbVertex
100
AcDb2dVertex
 10
5860.136641
 20
6964.926678
 30
0.0
  0
VERTEX
  5
C80
100
AcDbEntity
  8
LJIB
 62
     5
100
AcDbVertex
100
AcDb2dVertex
 10
5857.885945
 20
6958.045326
 30
0.0
  0
VERTEX
  5
C81
100
AcDbEntity
  8
LJIB
 62
     5
100
AcDbVertex
100
AcDb2dVertex
 10
5856.264998
 20
6950.988045
 30
0.0
  0
VERTEX
  5
C82
100
AcDbEntity
  8
LJIB
 62
     5
100
AcDbVertex
100
AcDb2dVertex
 10
5855.287082
 20
6943.812672
 30
0.0
  0
VERTEX
  5
C83
100
AcDbEntity
  8
LJIB
 62
     5
100
AcDbVertex
100
AcDb2dVertex
 10
5854.960215
 20
6936.57801
 30
0.0
  0
VERTEX
  5
C84
100
AcDbEntity
  8
LJIB
 62
     5
100
AcDbVertex
100
AcDb2dVertex
 10
5855.287074
 20
6929.343348
 30
0.0
  0
VERTEX
  5
C85
100
AcDbEntity
  8
LJIB
 62
     5
100
AcDbVertex
100
AcDb2dVertex
 10
5856.264978
 20
6922.167973
 30
0.0
  0
VERTEX
  5
C86
100
AcDbEntity
  8
LJIB
 62
     5
100
AcDbVertex
100
AcDb2dVertex
 10
5857.885917
 20
6915.110691
 30
0.0
  0
VERTEX
  5
C87
100
AcDbEntity
  8
LJIB
 62
     5
100
AcDbVertex
100
AcDb2dVertex
 10
5860.136604
 20
6908.229336
 30
0.0
  0
VERTEX
  5
C88
100
AcDbEntity
  8
LJIB
 62
     5
100
AcDbVertex
100
AcDb2dVertex
 10
5862.998596
 20
6901.580301
 30
0.0
  0
VERTEX
  5
C89
100
AcDbEntity
  8
LJIB
 62
     5
100
AcDbVertex
100
AcDb2dVertex
 10
5866.448438
 20
6895.218076
 30
0.0
  0
VERTEX
  5
C8A
100
AcDbEntity
  8
LJIB
 62
     5
100
AcDbVertex
100
AcDb2dVertex
 10
5870.457858
 20
6889.194802
 30
0.0
  0
VERTEX
  5
C8B
100
AcDbEntity
  8
LJIB
 62
     5
100
AcDbVertex
100
AcDb2dVertex
 10
5874.993998
 20
6883.559839
 30
0.0
  0
VERTEX
  5
C8C
100
AcDbEntity
  8
LJIB
 62
     5
100
AcDbVertex
100
AcDb2dVertex
 10
5880.019685
 20
6878.359366
 30
0.0
  0
VERTEX
  5
C8D
100
AcDbEntity
  8
LJIB
 62
     5
100
AcDbVertex
100
AcDb2dVertex
 10
5885.493732
 20
6873.636002
 30
0.0
  0
VERTEX
  5
C8E
100
AcDbEntity
  8
LJIB
 62
     5
100
AcDbVertex
100
AcDb2dVertex
 10
5891.371278
 20
6869.428456
 30
0.0
  0
SEQEND
  5
C8F
100
AcDbEntity
  8
LJIB
 62
     5
  0
POLYLINE
  5
408
100
AcDbEntity
  8
LJIB
 62
     5
100
AcDb2dPolyline
 66
     1
 10
0.0
 20
0.0
 30
0.0
  0
VERTEX
  5
C90
100
AcDbEntity
  8
LJIB
 62
     5
100
AcDbVertex
100
AcDb2dVertex
 10
5890.349816
 20
7003.319738
 30
0.0
  0
VERTEX
  5
C91
100
AcDbEntity
  8
LJIB
 62
     5
100
AcDbVertex
100
AcDb2dVertex
 10
5884.564358
 20
6999.099785
 30
0.0
  0
VERTEX
  5
C92
100
AcDbEntity
  8
LJIB
 62
     5
100
AcDbVertex
100
AcDb2dVertex
 10
5879.17915
 20
6994.37699
 30
0.0
  0
VERTEX
  5
C93
100
AcDbEntity
  8
LJIB
 62
     5
100
AcDbVertex
100
AcDb2dVertex
 10
5874.237506
 20
6989.189335
 30
0.0
  0
VERTEX
  5
C94
100
AcDbEntity
  8
LJIB
 62
     5
100
AcDbVertex
100
AcDb2dVertex
 10
5869.779168
 20
6983.578544
 30
0.0
  0
VERTEX
  5
C95
100
AcDbEntity
  8
LJIB
 62
     5
100
AcDbVertex
100
AcDb2dVertex
 10
5865.839994
 20
6977.589741
 30
0.0
  0
VERTEX
  5
C96
100
AcDbEntity
  8
LJIB
 62
     5
100
AcDbVertex
100
AcDb2dVertex
 10
5862.451664
 20
6971.271094
 30
0.0
  0
VERTEX
  5
C97
100
AcDbEntity
  8
LJIB
 62
     5
100
AcDbVertex
100
AcDb2dVertex
 10
5859.641431
 20
6964.673421
 30
0.0
  0
VERTEX
  5
C98
100
AcDbEntity
  8
LJIB
 62
     5
100
AcDbVertex
100
AcDb2dVertex
 10
5857.431897
 20
6957.849785
 30
0.0
  0
VERTEX
  5
C99
100
AcDbEntity
  8
LJIB
 62
     5
100
AcDbVertex
100
AcDb2dVertex
 10
5855.840831
 20
6950.855066
 30
0.0
  0
VERTEX
  5
C9A
100
AcDbEntity
  8
LJIB
 62
     5
100
AcDbVertex
100
AcDb2dVertex
 10
5854.881031
 20
6943.745521
 30
0.0
  0
VERTEX
  5
C9B
100
AcDbEntity
  8
LJIB
 62
     5
100
AcDbVertex
100
AcDb2dVertex
 10
5854.560215
 20
6936.57833
 30
0.0
  0
VERTEX
  5
C9C
100
AcDbEntity
  8
LJIB
 62
     5
100
AcDbVertex
100
AcDb2dVertex
 10
5854.880964
 20
6929.411136
 30
0.0
  0
VERTEX
  5
C9D
100
AcDbEntity
  8
LJIB
 62
     5
100
AcDbVertex
100
AcDb2dVertex
 10
5855.840698
 20
6922.301582
 30
0.0
  0
VERTEX
  5
C9E
100
AcDbEntity
  8
LJIB
 62
     5
100
AcDbVertex
100
AcDb2dVertex
 10
5857.431699
 20
6915.306848
 30
0.0
  0
VERTEX
  5
C9F
100
AcDbEntity
  8
LJIB
 62
     5
100
AcDbVertex
100
AcDb2dVertex
 10
5859.64117
 20
6908.483192
 30
0.0
  0
VERTEX
  5
CA0
100
AcDbEntity
  8
LJIB
 62
     5
100
AcDbVertex
100
AcDb2dVertex
 10
5862.451342
 20
6901.885493
 30
0.0
  0
VERTEX
  5
CA1
100
AcDbEntity
  8
LJIB
 62
     5
100
AcDbVertex
100
AcDb2dVertex
 10
5865.839613
 20
6895.566814
 30
0.0
  0
VERTEX
  5
CA2
100
AcDbEntity
  8
LJIB
 62
     5
100
AcDbVertex
100
AcDb2dVertex
 10
5869.778731
 20
6889.577975
 30
0.0
  0
VERTEX
  5
CA3
100
AcDbEntity
  8
LJIB
 62
     5
100
AcDbVertex
100
AcDb2dVertex
 10
5874.237018
 20
6883.967142
 30
0.0
  0
VERTEX
  5
CA4
100
AcDbEntity
  8
LJIB
 62
     5
100
AcDbVertex
100
AcDb2dVertex
 10
5879.178614
 20
6878.77944
 30
0.0
  0
VERTEX
  5
CA5
100
AcDbEntity
  8
LJIB
 62
     5
100
AcDbVertex
100
AcDb2dVertex
 10
5884.563778
 20
6874.056595
 30
0.0
  0
VERTEX
  5
CA6
100
AcDbEntity
  8
LJIB
 62
     5
100
AcDbVertex
100
AcDb2dVertex
 10
5890.349197
 20
6869.836588
 30
0.0
  0
SEQEND
  5
CA7
100
AcDbEntity
  8
LJIB
 62
     5
  0
LINE
  5
421
100
AcDbEntity
  8
LJIB
 62
     5
100
AcDbLine
 10
6174.090215
 20
6684.580908
 30
0.0
 11
6173.690215
 21
6684.580908
 31
0.0
  0
LINE
  5
422
100
AcDbEntity
  8
LJIB
 62
     5
100
AcDbLine
 10
6174.090215
 20
6672.580908
 30
0.0
 11
6173.690215
 21
6672.580908
 31
0.0
  0
LINE
  5
423
100
AcDbEntity
  8
LJIB
 62
     5
100
AcDbLine
 10
6173.690215
 20
6684.580908
 30
0.0
 11
6173.690215
 21
6672.580908
 31
0.0
  0
LINE
  5
424
100
AcDbEntity
  8
LJIB
 62
     5
100
AcDbLine
 10
6163.610215
 20
6733.040108
 30
0.0
 11
6158.250215
 21
6744.633708
 31
0.0
  0
LINE
  5
425
100
AcDbEntity
  8
LJIB
 62
     5
100
AcDbLine
 10
6158.250215
 20
7128.528908
 30
0.0
 11
6163.610215
 21
7140.116908
 31
0.0
  0
LINE
  5
426
100
AcDbEntity
  8
LJIB
 62
     5
100
AcDbLine
 10
6173.690215
 20
7188.574508
 30
0.0
 11
6174.090215
 21
7188.574508
 31
0.0
  0
LINE
  5
427
100
AcDbEntity
  8
LJIB
 62
     5
100
AcDbLine
 10
6173.690215
 20
7200.574508
 30
0.0
 11
6174.090215
 21
7200.574508
 31
0.0
  0
LINE
  5
428
100
AcDbEntity
  8
LJIB
 62
     5
100
AcDbLine
 10
6173.690215
 20
7200.574508
 30
0.0
 11
6173.690215
 21
7188.574508
 31
0.0
  0
CIRCLE
  5
429
100
AcDbEntity
  8
LJIB
 62
     5
100
AcDbCircle
 10
8816.330215
 20
7336.577708
 30
0.0
 40
24.0
  0
ARC
  5
42A
100
AcDbEntity
  8
LJIB
 62
     5
100
AcDbCircle
 10
8816.330215
 20
7336.577708
 30
0.0
 40
50.40008
100
AcDbArc
 50
262.097022
 51
97.902903
  0
LINE
  5
42B
100
AcDbEntity
  8
LJIB
 62
     5
100
AcDbLine
 10
8508.810215
 20
7347.021708
 30
0.0
 11
8507.690215
 21
7363.785708
 31
0.0
  0
LINE
  5
42C
100
AcDbEntity
  8
LJIB
  6
CENTER
 62
     5
100
AcDbLine
 10
8816.330215
 20
7412.721708
 30
0.0
 11
8816.330215
 21
6447.893708
 31
0.0
  0
LINE
  5
42D
100
AcDbEntity
  8
LJIB
 62
     5
100
AcDbLine
 10
8442.810215
 20
6589.608108
 30
0.0
 11
8525.770215
 21
6875.343628
 31
0.0
  0
LINE
  5
42E
100
AcDbEntity
  8
LJIB
 62
     5
100
AcDbLine
 10
8701.530215
 20
7299.814859
 30
0.0
 11
8701.530215
 21
6577.334508
 31
0.0
  0
LINE
  5
42F
100
AcDbEntity
  8
LJIB
 62
     5
100
AcDbLine
 10
8667.370215
 20
7297.665155
 30
0.0
 11
8667.370215
 21
6579.484108
 31
0.0
  0
LINE
  5
430
100
AcDbEntity
  8
LJIB
 62
     5
100
AcDbLine
 10
8407.850215
 20
7281.326508
 30
0.0
 11
8610.730215
 21
6583.048908
 31
0.0
  0
LINE
  5
431
100
AcDbEntity
  8
LJIB
 62
     5
100
AcDbLine
 10
8442.810215
 20
7283.525708
 30
0.0
 11
8646.970215
 21
6580.767308
 31
0.0
  0
LINE
  5
432
100
AcDbEntity
  8
LJIB
 62
     5
100
AcDbLine
 10
8407.850215
 20
6591.802508
 30
0.0
 11
8508.010215
 21
6936.562992
 31
0.0
  0
LINE
  5
433
100
AcDbEntity
  8
LJIB
 62
     5
100
AcDbLine
 10
8752.330215
 20
6494.586508
 30
0.0
 11
8809.450215
 21
6486.664108
 31
0.0
  0
LINE
  5
434
100
AcDbEntity
  8
LJIB
 62
     5
100
AcDbLine
 10
8752.330215
 20
6578.579308
 30
0.0
 11
8809.450215
 21
6586.500908
 31
0.0
  0
ARC
  5
435
100
AcDbEntity
  8
LJIB
 62
     5
100
AcDbCircle
 10
8816.330215
 20
6536.576908
 30
0.0
 40
50.40008
100
AcDbArc
 50
262.097022
 51
97.902903
  0
LINE
  5
436
100
AcDbEntity
  8
LJIB
 62
     5
100
AcDbLine
 10
8752.330215
 20
6494.578508
 30
0.0
 11
8752.330215
 21
6578.578508
 31
0.0
  0
LINE
  5
437
100
AcDbEntity
  8
LJIB
 62
     5
100
AcDbLine
 10
8712.330215
 20
6500.504908
 30
0.0
 11
8707.530215
 21
6500.806508
 31
0.0
  0
LINE
  5
438
100
AcDbEntity
  8
LJIB
 62
     5
100
AcDbLine
 10
8698.970215
 20
6491.720108
 30
0.0
 11
8699.290215
 21
6497.315308
 31
0.0
  0
LINE
  5
439
100
AcDbEntity
  8
LJIB
 62
     5
100
AcDbLine
 10
8707.290215
 20
6496.808108
 30
0.0
 11
8707.530215
 21
6500.803308
 31
0.0
  0
LINE
  5
43A
100
AcDbEntity
  8
LJIB
 62
     5
100
AcDbLine
 10
8712.330215
 20
6494.578508
 30
0.0
 11
8752.330215
 21
6494.578508
 31
0.0
  0
LINE
  5
43B
100
AcDbEntity
  8
LJIB
 62
     5
100
AcDbLine
 10
8707.290215
 20
6572.960908
 30
0.0
 11
8707.610215
 21
6576.949708
 31
0.0
  0
LINE
  5
43C
100
AcDbEntity
  8
LJIB
 62
     5
100
AcDbLine
 10
8712.330215
 20
6578.578508
 30
0.0
 11
8752.330215
 21
6578.578508
 31
0.0
  0
LINE
  5
43D
100
AcDbEntity
  8
LJIB
 62
     5
100
AcDbLine
 10
8512.490215
 20
6585.221708
 30
0.0
 11
8512.730215
 21
6589.210508
 31
0.0
  0
LINE
  5
43E
100
AcDbEntity
  8
LJIB
 62
     5
100
AcDbLine
 10
8707.290215
 20
6496.810508
 30
0.0
 11
8507.690215
 21
6509.372108
 31
0.0
  0
LINE
  5
43F
100
AcDbEntity
  8
LJIB
 62
     5
100
AcDbLine
 10
8707.530215
 20
6576.953708
 30
0.0
 11
8512.730215
 21
6589.213708
 31
0.0
  0
CIRCLE
  5
440
100
AcDbEntity
  8
LJIB
 62
     5
100
AcDbCircle
 10
8816.330215
 20
6536.584108
 30
0.0
 40
24.0
  0
LINE
  5
441
100
AcDbEntity
  8
LJIB
 62
     5
100
AcDbLine
 10
8752.330215
 20
7294.580908
 30
0.0
 11
8809.450215
 21
7286.659308
 31
0.0
  0
LINE
  5
442
100
AcDbEntity
  8
LJIB
 62
     5
100
AcDbLine
 10
8712.330215
 20
7300.494508
 30
0.0
 11
8712.330215
 21
7294.580908
 31
0.0
  0
LINE
  5
443
100
AcDbEntity
  8
LJIB
 62
     5
100
AcDbLine
 10
8712.330215
 20
7294.580908
 30
0.0
 11
8752.330215
 21
7294.580908
 31
0.0
  0
LINE
  5
444
100
AcDbEntity
  8
LJIB
 62
     5
100
AcDbLine
 10
8543.610215
 20
6936.562396
 30
0.0
 11
8648.152015
 21
7296.455745
 31
0.0
  0
LINE
  5
445
100
AcDbEntity
  8
LJIB
 62
     5
100
AcDbLine
 10
8525.770215
 20
6997.781708
 30
0.0
 11
8611.91344
 21
7294.175235
 31
0.0
  0
POINT
  5
446
100
AcDbEntity
  8
LJIB
 62
     5
100
AcDbPoint
 10
8816.330215
 20
6936.577958
 30
0.0
  0
LINE
  5
447
100
AcDbEntity
  8
LJIB
 62
     5
100
AcDbLine
 10
8752.330215
 20
7378.580108
 30
0.0
 11
8809.450215
 21
7386.501708
 31
0.0
  0
LINE
  5
448
100
AcDbEntity
  8
LJIB
 62
     5
100
AcDbLine
 10
8710.410215
 20
7378.580908
 30
0.0
 11
8752.330215
 21
7378.580908
 31
0.0
  0
LINE
  5
449
100
AcDbEntity
  8
LJIB
 62
     5
100
AcDbLine
 10
8507.690215
 20
7363.782508
 30
0.0
 11
8710.410215
 21
7376.539649
 31
0.0
  0
TEXT
  5
44A
100
AcDbEntity
  8
0
100
AcDbText
 10
4335.834467
 20
3454.466161
 30
0.0
 40
800.0
  1
B160114
100
AcDbText
  0
TEXT
  5
44B
100
AcDbEntity
  8
0
100
AcDbText
 10
10129.881997
 20
3454.466161
 30
0.0
 40
800.0
  1
B090115
100
AcDbText
  0
ARC
  5
44D
100
AcDbEntity
  8
HOOK
100
AcDbCircle
 10
6187.400309
 20
668.772538
 30
0.0
 40
141.17602
100
AcDbArc
 50
358.4
 51
28.4
  0
ARC
  5
44E
100
AcDbEntity
  8
HOOK
100
AcDbCircle
 10
6251.571227
 20
645.048744
 30
0.0
 40
149.343228
100
AcDbArc
 50
11.8
 51
50.2
  0
ARC
  5
44F
100
AcDbEntity
  8
HOOK
100
AcDbCircle
 10
6467.807776
 20
683.162381
 30
0.0
 40
70.393553
100
AcDbArc
 50
186.2
 51
55.2
  0
ARC
  5
450
100
AcDbEntity
  8
HOOK
100
AcDbCircle
 10
6498.143119
 20
683.94021
 30
0.0
 40
170.34462
100
AcDbArc
 50
200.3
 51
61.8
  0
LINE
  5
451
100
AcDbEntity
  8
HOOK
  6
CENTER
100
AcDbLine
 10
6468.196691
 20
1985.248652
 30
0.0
 11
6468.196691
 21
373.586314
 31
0.0
  0
ARC
  5
452
100
AcDbEntity
  8
HOOK
100
AcDbCircle
 10
6444.472897
 20
673.439514
 30
0.0
 40
116.285482
100
AcDbArc
 50
184.1
 51
204.6
  0
TEXT
  5
453
100
AcDbEntity
  8
HOOK
100
AcDbText
 10
6508.219103
 20
570.061542
 30
0.0
 40
30.0
  1
25t
100
AcDbText
  0
LINE
  5
454
100
AcDbEntity
  8
HOOK
  6
CENTER
100
AcDbLine
 10
6072.670485
 20
1520.884551
 30
0.0
 11
6917.393119
 21
1520.884551
 31
0.0
  0
LINE
  5
455
100
AcDbEntity
  8
HOOK
100
AcDbLine
 10
6647.486348
 20
1846.017205
 30
0.0
 11
6288.907034
 21
1846.017205
 31
0.0
  0
POINT
  5
456
100
AcDbEntity
  8
HOOK
100
AcDbPoint
 10
6468.196691
 20
1520.884551
 30
0.0
  0
LINE
  5
457
100
AcDbEntity
  8
HOOK
  6
CENTER
100
AcDbLine
 10
6357.404293
 20
976.384551
 30
0.0
 11
6568.326024
 21
976.384551
 31
0.0
  0
ARC
  5
458
100
AcDbEntity
  8
HOOK
100
AcDbCircle
 10
6799.551978
 20
1053.409134
 30
0.0
 40
427.417208
100
AcDbArc
 50
213.9
 51
227.0
  0
LINE
  5
459
100
AcDbEntity
  8
HOOK
100
AcDbLine
 10
6552.202257
 20
865.563355
 30
0.0
 11
6468.196691
 21
865.563355
 31
0.0
  0
LINE
  5
45A
100
AcDbEntity
  8
HOOK
100
AcDbLine
 10
6118.1735
 20
1558.609273
 30
0.0
 11
6288.907034
 21
1846.017205
 31
0.0
  0
LINE
  5
45B
100
AcDbEntity
  8
HOOK
100
AcDbLine
 10
6118.1735
 20
1558.609273
 30
0.0
 11
6118.1735
 21
1417.433253
 31
0.0
  0
ARC
  5
45C
100
AcDbEntity
  8
HOOK
100
AcDbCircle
 10
6584.093259
 20
894.343039
 30
0.0
 40
160.232839
100
AcDbArc
 50
190.4
 51
209.6
  0
ARC
  5
45D
100
AcDbEntity
  8
HOOK
100
AcDbCircle
 10
6334.410049
 20
740.332835
 30
0.0
 40
23.334879
100
AcDbArc
 50
57.2
 51
191.6
  0
LINE
  5
45E
100
AcDbEntity
  8
HOOK
100
AcDbLine
 10
6118.1735
 20
1417.433253
 30
0.0
 11
6384.191125
 21
865.563355
 31
0.0
  0
LINE
  5
45F
100
AcDbEntity
  8
HOOK
100
AcDbLine
 10
6384.191125
 20
865.563355
 30
0.0
 11
6468.196691
 21
865.563355
 31
0.0
  0
LINE
  5
460
100
AcDbEntity
  8
HOOK
100
AcDbLine
 10
6818.219882
 20
1558.609273
 30
0.0
 11
6647.486348
 21
1846.017205
 31
0.0
  0
LINE
  5
461
100
AcDbEntity
  8
HOOK
100
AcDbLine
 10
6818.219882
 20
1558.609273
 30
0.0
 11
6818.219882
 21
1417.433253
 31
0.0
  0
ARC
  5
462
100
AcDbEntity
  8
HOOK
100
AcDbCircle
 10
6608.983797
 20
935.956908
 30
0.0
 40
106.173701
100
AcDbArc
 50
221.6
 51
253.6
  0
LINE
  5
463
100
AcDbEntity
  8
HOOK
100
AcDbLine
 10
6818.219882
 20
1417.433253
 30
0.0
 11
6552.202257
 21
865.563355
 31
0.0
  0
LINE
  5
464
100
AcDbEntity
  8
HOOK
100
AcDbLine
 10
12250.879967
 20
1718.325009
 30
0.0
 11
12250.879967
 21
1040.469354
 31
0.0
  0
LINE
  5
465
100
AcDbEntity
  8
HOOK
  6
CONTINUOUS
100
AcDbLine
 10
12450.882467
 20
1794.620992
 30
0.0
 11
12450.882467
 21
1142.939778
 31
0.0
  0
LINE
  5
466
100
AcDbEntity
  8
HOOK
  6
CONTINUOUS
100
AcDbLine
 10
12050.877467
 20
1794.621498
 30
0.0
 11
12050.877467
 21
1142.939778
 31
0.0
  0
ARC
  5
467
100
AcDbEntity
  8
HOOK
100
AcDbCircle
 10
12385.741078
 20
1076.069963
 30
0.0
 40
180.0
100
AcDbArc
 50
174.622279
 51
225.033013
  0
ARC
  5
468
100
AcDbEntity
  8
HOOK
100
AcDbCircle
 10
12358.796633
 20
1078.986629
 30
0.0
 40
62.999444
100
AcDbArc
 50
167.203995
 51
247.014997
  0
ARC
  5
469
100
AcDbEntity
  8
HOOK
100
AcDbCircle
 10
12267.407745
 20
863.569963
 30
0.0
 40
170.998611
100
AcDbArc
 50
0.03306
 51
67.097426
  0
ARC
  5
46A
100
AcDbEntity
  8
HOOK
100
AcDbCircle
 10
12107.546633
 20
922.97274
 30
0.0
 40
25.0
100
AcDbArc
 50
37.05891
 51
208.190002
  0
ARC
  5
46B
100
AcDbEntity
  8
HOOK
100
AcDbCircle
 10
12250.879967
 20
868.056074
 30
0.0
 40
62.5
100
AcDbArc
 50
0.032945
 51
45.033623
  0
ARC
  5
46C
100
AcDbEntity
  8
HOOK
100
AcDbCircle
 10
11948.379967
 20
742.72274
 30
0.0
 40
265.0
100
AcDbArc
 50
22.500683
 51
45.033108
  0
LINE
  5
46D
100
AcDbEntity
  8
HOOK
100
AcDbLine
 10
12125.185522
 20
940.653296
 30
0.0
 11
12135.602189
 21
930.208852
 31
0.0
  0
LINE
  5
46E
100
AcDbEntity
  8
HOOK
100
AcDbLine
 10
12258.657745
 20
948.72274
 30
0.0
 11
12295.046633
 21
912.278296
 31
0.0
  0
ARC
  5
46F
100
AcDbEntity
  8
HOOK
100
AcDbCircle
 10
12267.407745
 20
847.056074
 30
0.0
 40
155.0
100
AcDbArc
 50
269.768011
 51
284.900972
  0
ARC
  5
470
100
AcDbEntity
  8
HOOK
100
AcDbCircle
 10
12267.407745
 20
847.056074
 30
0.0
 40
155.0
100
AcDbArc
 50
188.363026
 51
269.250973
  0
ARC
  5
471
100
AcDbEntity
  8
HOOK
100
AcDbCircle
 10
11851.852189
 20
785.97274
 30
0.0
 40
264.998611
100
AcDbArc
 50
8.363121
 51
28.190096
  0
ARC
  5
472
100
AcDbEntity
  8
HOOK
100
AcDbCircle
 10
12267.407745
 20
863.569963
 30
0.0
 40
171.0
100
AcDbArc
 50
283.48101
 51
0.032945
  0
ARC
  5
473
100
AcDbEntity
  8
HOOK
100
AcDbCircle
 10
12250.879967
 20
868.056074
 30
0.0
 40
62.499722
100
AcDbArc
 50
202.500989
 51
267.189013
  0
ARC
  5
474
100
AcDbEntity
  8
HOOK
100
AcDbCircle
 10
12250.879967
 20
868.056074
 30
0.0
 40
62.499861
100
AcDbArc
 50
267.066973
 51
0.032945
  0
LINE
  5
475
100
AcDbEntity
  8
HOOK
  6
CONTINUOUS
100
AcDbLine
 10
12090.877467
 20
1092.939778
 30
0.0
 11
12050.877467
 21
1142.939778
 31
0.0
  0
LINE
  5
476
100
AcDbEntity
  8
HOOK
  6
CONTINUOUS
100
AcDbLine
 10
12050.877467
 20
1445.936074
 30
0.0
 11
12450.882467
 21
1445.936074
 31
0.0
  0
LINE
  5
477
100
AcDbEntity
  8
HOOK
  6
CONTINUOUS
100
AcDbLine
 10
12090.877467
 20
1092.939778
 30
0.0
 11
12410.882467
 21
1092.939778
 31
0.0
  0
LINE
  5
478
100
AcDbEntity
  8
HOOK
  6
CONTINUOUS
100
AcDbLine
 10
12410.882467
 20
1092.939778
 30
0.0
 11
12450.882467
 21
1142.939778
 31
0.0
  0
LINE
  5
479
100
AcDbEntity
  8
HOOK
  6
CONTINUOUS
100
AcDbLine
 10
12110.311119
 20
1522.936074
 30
0.0
 11
12391.448814
 21
1522.936074
 31
0.0
  0
POINT
  5
47A
100
AcDbEntity
  8
HOOK
100
AcDbPoint
 10
12250.879967
 20
1522.936074
 30
0.0
  0
LINE
  5
47B
100
AcDbEntity
  8
HOOK
  6
CONTINUOUS
100
AcDbLine
 10
12050.877467
 20
1794.621498
 30
0.0
 11
12110.310496
 21
1895.934393
 31
0.0
  0
LINE
  5
47C
100
AcDbEntity
  8
HOOK
  6
CONTINUOUS
100
AcDbLine
 10
12391.448751
 20
1895.935079
 30
0.0
 11
12450.882467
 21
1794.620992
 31
0.0
  0
LINE
  5
47D
100
AcDbEntity
  8
HOOK
  6
CONTINUOUS
100
AcDbLine
 10
12110.311119
 20
1895.936074
 30
0.0
 11
12391.448814
 21
1895.936074
 31
0.0
  0
POINT
  5
47E
100
AcDbEntity
  8
LJIB
 62
     5
100
AcDbPoint
 10
10770.16289
 20
24238.140787
 30
0.0
  0
POINT
  5
47F
100
AcDbEntity
  8
LJIB
 62
     5
100
AcDbPoint
 10
14303.960443
 20
24186.588316
 30
0.0
  0
POINT
  5
480
100
AcDbEntity
  8
LJIB
 62
     5
100
AcDbPoint
 10
23303.960443
 20
24186.588316
 30
0.0
  0
POINT
  5
481
100
AcDbEntity
  8
LJIB
 62
     5
100
AcDbPoint
 10
25749.533786
 20
23956.335341
 30
0.0
  0
POINT
  5
482
100
AcDbEntity
  8
LJIB
 62
     5
100
AcDbPoint
 10
34749.533786
 20
23956.335341
 30
0.0
  0
LINE
  5
7D3
100
AcDbEntity
  8
SUPORT1
 62
     5
100
AcDbLine
 10
16060.382398
 20
12873.927411
 30
0.0
 11
18713.882398
 21
12535.127411
 31
0.0
  0
LINE
  5
7D4
100
AcDbEntity
  8
SUPORT1
  6
CENTER
 62
     5
100
AcDbLine
 10
15307.282398
 20
13102.627411
 30
0.0
 11
19547.882398
 21
13102.627411
 31
0.0
  0
LINE
  5
7D5
100
AcDbEntity
  8
SUPORT1
 62
     5
100
AcDbLine
 10
17103.304146
 20
13503.601171
 30
0.0
 11
19022.982398
 21
13675.527411
 31
0.0
  0
LINE
  5
7D6
100
AcDbEntity
  8
SUPORT1
 62
     5
100
AcDbLine
 10
18519.382398
 20
12744.227411
 30
0.0
 11
16706.282398
 21
13525.427411
 31
0.0
  0
LINE
  5
7D7
100
AcDbEntity
  8
SUPORT1
 62
     5
100
AcDbLine
 10
18481.782398
 20
12657.027411
 30
0.0
 11
16621.982398
 21
13458.327411
 31
0.0
  0
LINE
  5
7D8
100
AcDbEntity
  8
SUPORT1
 62
     5
100
AcDbLine
 10
18313.282398
 20
12618.527411
 30
0.0
 11
18469.082398
 21
12662.427411
 31
0.0
  0
LINE
  5
7D9
100
AcDbEntity
  8
SUPORT1
 62
     5
100
AcDbLine
 10
18311.282398
 20
12603.627411
 30
0.0
 11
18716.082398
 21
12552.027411
 31
0.0
  0
LINE
  5
7DA
100
AcDbEntity
  8
SUPORT1
 62
     5
100
AcDbLine
 10
17607.182398
 20
13172.627411
 30
0.0
 11
19109.082398
 21
13172.627411
 31
0.0
  0
LINE
  5
7DB
100
AcDbEntity
  8
SUPORT1
 62
     5
100
AcDbLine
 10
17839.282398
 20
13072.627411
 30
0.0
 11
19109.082398
 21
13072.627411
 31
0.0
  0
LINE
  5
7DC
100
AcDbEntity
  8
SUPORT1
 62
     5
100
AcDbLine
 10
17225.982398
 20
13336.927411
 30
0.0
 11
19038.782398
 21
13499.227411
 31
0.0
  0
LINE
  5
7DD
100
AcDbEntity
  8
SUPORT1
 62
     5
100
AcDbLine
 10
15741.182398
 20
13392.627411
 30
0.0
 11
15741.182398
 21
12902.627411
 31
0.0
  0
POINT
  5
7DE
100
AcDbEntity
  8
SUPORT1
 62
     5
100
AcDbPoint
 10
15431.182398
 20
13102.627411
 30
0.0
  0
LINE
  5
7DF
100
AcDbEntity
  8
SUPORT1
 62
     5
100
AcDbLine
 10
15292.496495
 20
13042.892388
 30
0.0
 11
15029.682398
 21
13674.427411
 31
0.0
  0
LINE
  5
7E1
100
AcDbEntity
  8
SUPORT1
 62
     5
100
AcDbLine
 10
16548.796915
 20
13040.374513
 30
0.0
 11
18031.182398
 21
12851.127411
 31
0.0
  0
LINE
  5
7E2
100
AcDbEntity
  8
SUPORT1
 62
     5
100
AcDbLine
 10
16546.182398
 20
13072.627411
 30
0.0
 11
17517.082398
 21
13072.627411
 31
0.0
  0
LINE
  5
7E3
100
AcDbEntity
  8
SUPORT1
 62
     5
100
AcDbLine
 10
16528.182398
 20
13274.427411
 30
0.0
 11
16959.182398
 21
13313.027411
 31
0.0
  0
LINE
  5
7E4
100
AcDbEntity
  8
SUPORT1
 62
     5
100
AcDbLine
 10
16537.282398
 20
13172.627411
 30
0.0
 11
17284.982398
 21
13172.627411
 31
0.0
  0
LINE
  5
7E5
100
AcDbEntity
  8
SUPORT1
 62
     5
100
AcDbLine
 10
15741.182398
 20
12902.627411
 30
0.0
 11
16060.382398
 21
12873.927411
 31
0.0
  0
LINE
  5
7E6
100
AcDbEntity
  8
SUPORT1
 62
     5
100
AcDbLine
 10
15719.182398
 20
12917.627411
 30
0.0
 11
15431.182398
 21
12965.816388
 31
0.0
  0
LINE
  5
7E7
100
AcDbEntity
  8
SUPORT1
 62
     5
100
AcDbLine
 10
15731.182398
 20
12902.627411
 30
0.0
 11
15431.182398
 21
12950.692955
 31
0.0
  0
LINE
  5
7E8
100
AcDbEntity
  8
SUPORT1
 62
     5
100
AcDbLine
 10
15719.182398
 20
13367.627411
 30
0.0
 11
15381.359205
 21
13228.008079
 31
0.0
  0
ARC
  5
7E9
100
AcDbEntity
  8
SUPORT1
 62
     5
100
AcDbCircle
 10
15431.182398
 20
13102.627411
 30
0.0
 40
149.916772
100
AcDbArc
 50
202.362233
 51
270.144482
  0
ARC
  5
7EA
100
AcDbEntity
  8
SUPORT1
 62
     5
100
AcDbCircle
 10
15431.182398
 20
13102.627411
 30
0.0
 40
134.738202
100
AcDbArc
 50
106.485472
 51
270.541301
  0
LINE
  5
7EB
100
AcDbEntity
  8
SUPORT1
  6
CENTER
 62
     5
100
AcDbLine
 10
15431.182398
 20
13259.127411
 30
0.0
 11
15431.182398
 21
12837.949686
 31
0.0
  0
LINE
  5
7EC
100
AcDbEntity
  8
SUPORT1
 62
     5
100
AcDbLine
 10
15719.182398
 20
13367.627411
 30
0.0
 11
15719.182398
 21
12917.627411
 31
0.0
  0
LINE
  5
7ED
100
AcDbEntity
  8
SUPORT1
 62
     5
100
AcDbLine
 10
15731.182398
 20
12902.627411
 30
0.0
 11
15741.182398
 21
12902.627411
 31
0.0
  0
LINE
  5
7EE
100
AcDbEntity
  8
SUPORT1
 62
     5
100
AcDbLine
 10
16548.982398
 20
13041.827411
 30
0.0
 11
16541.982398
 21
13041.227411
 31
0.0
  0
LINE
  5
7EF
100
AcDbEntity
  8
SUPORT1
 62
     5
100
AcDbLine
 10
16528.162891
 20
13274.425665
 30
0.0
 11
16548.982398
 21
13041.827411
 31
0.0
  0
LINE
  5
7F0
100
AcDbEntity
  8
SUPORT1
 62
     5
100
AcDbLine
 10
17157.982398
 20
13330.827411
 30
0.0
 11
17194.582398
 21
13334.127411
 31
0.0
  0
LINE
  5
7F1
100
AcDbEntity
  8
SUPORT1
 62
     5
100
AcDbLine
 10
17525.082398
 20
13172.627411
 30
0.0
 11
17569.282398
 21
13172.627411
 31
0.0
  0
LINE
  5
7F2
100
AcDbEntity
  8
SUPORT1
 62
     5
100
AcDbLine
 10
18313.182398
 20
12618.527411
 30
0.0
 11
18311.282398
 21
12603.627411
 31
0.0
  0
LINE
  5
7F3
100
AcDbEntity
  8
SUPORT1
 62
     5
100
AcDbLine
 10
17757.182398
 20
13072.627411
 30
0.0
 11
17801.382398
 21
13072.627411
 31
0.0
  0
LINE
  5
7F4
100
AcDbEntity
  8
SUPORT1
 62
     5
100
AcDbLine
 10
15222.082398
 20
13677.527411
 30
0.0
 11
15991.082398
 21
13555.027411
 31
0.0
  0
POINT
  5
7F5
100
AcDbEntity
  8
SUPORT1
 62
     5
100
AcDbPoint
 10
15131.137149
 20
13742.650362
 30
0.0
  0
ARC
  5
7F6
100
AcDbEntity
  8
SUPORT1
 62
     5
100
AcDbCircle
 10
15224.282398
 20
14030.727411
 30
0.0
 40
30.0009
100
AcDbArc
 50
208.146973
 51
298.147985
  0
LINE
  5
7F7
100
AcDbEntity
  8
SUPORT1
 62
     5
100
AcDbLine
 10
15314.182398
 20
14180.827411
 30
0.0
 11
15181.782398
 21
14110.027411
 31
0.0
  0
LINE
  5
7F8
100
AcDbEntity
  8
SUPORT1
 62
     5
100
AcDbLine
 10
15283.582398
 20
13769.027411
 30
0.0
 11
15210.082398
 21
13833.027411
 31
0.0
  0
LINE
  5
7F9
100
AcDbEntity
  8
SUPORT1
 62
     5
100
AcDbLine
 10
15237.782398
 20
13776.227411
 30
0.0
 11
15168.882398
 21
13813.127411
 31
0.0
  0
LINE
  5
7FA
100
AcDbEntity
  8
SUPORT1
 62
     5
100
AcDbLine
 10
15222.082398
 20
13677.527411
 30
0.0
 11
15145.182398
 21
13663.827411
 31
0.0
  0
ARC
  5
7FB
100
AcDbEntity
  8
SUPORT1
 62
     5
100
AcDbCircle
 10
15131.137149
 20
13742.650362
 30
0.0
 40
120.057283
100
AcDbArc
 50
57.638477
 51
213.918744
  0
ARC
  5
7FC
100
AcDbEntity
  8
SUPORT1
 62
     5
100
AcDbCircle
 10
15131.182398
 20
13742.627411
 30
0.0
 40
79.9997
100
AcDbArc
 50
61.82799
 51
280.073
  0
LINE
  5
7FD
100
AcDbEntity
  8
SUPORT1
  6
CENTER
 62
     5
100
AcDbLine
 10
15144.482398
 20
13826.327411
 30
0.0
 11
15115.982398
 21
13647.627411
 31
0.0
  0
ARC
  5
7FE
100
AcDbEntity
  8
SUPORT1
 62
     5
100
AcDbCircle
 10
15131.282398
 20
13742.627411
 30
0.0
 40
119.999
100
AcDbArc
 50
48.913407
 51
57.702923
  0
LINE
  5
7FF
100
AcDbEntity
  8
SUPORT1
  6
CENTER
 62
     5
100
AcDbLine
 10
15070.382398
 20
13752.327411
 30
0.0
 11
15202.166215
 21
13731.336815
 31
0.0
  0
ARC
  5
800
100
AcDbEntity
  8
SUPORT1
 62
     5
100
AcDbCircle
 10
15195.882398
 20
14083.627411
 30
0.0
 40
30.0001
100
AcDbArc
 50
118.148023
 51
208.146973
  0
LINE
  5
801
100
AcDbEntity
  8
SUPORT1
 62
     5
100
AcDbLine
 10
15197.882398
 20
14016.327411
 30
0.0
 11
15169.382398
 21
14069.627411
 31
0.0
  0
LINE
  5
802
100
AcDbEntity
  8
SUPORT1
 62
     5
100
AcDbLine
 10
16604.682398
 20
13678.327411
 30
0.0
 11
17103.304146
 21
13503.601171
 31
0.0
  0
LINE
  5
803
100
AcDbEntity
  8
SUPORT1
 62
     5
100
AcDbLine
 10
15615.782398
 20
14112.127411
 30
0.0
 11
15767.782398
 21
14488.727411
 31
0.0
  0
LINE
  5
804
100
AcDbEntity
  8
SUPORT1
 62
     5
100
AcDbLine
 10
15388.182398
 20
14084.327411
 30
0.0
 11
15978.782398
 21
14713.527411
 31
0.0
  0
LINE
  5
805
100
AcDbEntity
  8
SUPORT1
 62
     5
100
AcDbLine
 10
15314.182398
 20
14180.827411
 30
0.0
 11
15756.682398
 21
14652.227411
 31
0.0
  0
LINE
  5
806
100
AcDbEntity
  8
SUPORT1
 62
     5
100
AcDbLine
 10
15708.582398
 20
14074.727411
 30
0.0
 11
15903.482398
 21
14557.827411
 31
0.0
  0
LINE
  5
807
100
AcDbEntity
  8
SUPORT1
 62
     5
100
AcDbLine
 10
15995.482398
 20
13655.627411
 30
0.0
 11
16338.782398
 21
13680.427411
 31
0.0
  0
LINE
  5
808
100
AcDbEntity
  8
SUPORT1
 62
     5
100
AcDbLine
 10
15741.182398
 20
13392.627411
 30
0.0
 11
16082.982398
 21
13424.327411
 31
0.0
  0
LINE
  5
809
100
AcDbEntity
  8
SUPORT1
 62
     5
100
AcDbLine
 10
16032.482398
 20
13533.327411
 30
0.0
 11
16004.482398
 21
13556.027411
 31
0.0
  0
LINE
  5
80A
100
AcDbEntity
  8
SUPORT1
 62
     5
100
AcDbLine
 10
15991.082398
 20
13555.027411
 30
0.0
 11
16345.982398
 21
13580.627411
 31
0.0
  0
LINE
  5
80B
100
AcDbEntity
  8
SUPORT1
 62
     5
100
AcDbLine
 10
15527.182398
 20
13933.727411
 30
0.0
 11
15449.982398
 21
13742.427411
 31
0.0
  0
LINE
  5
80C
100
AcDbEntity
  8
SUPORT1
 62
     5
100
AcDbLine
 10
15402.082398
 20
14000.927411
 30
0.0
 11
15426.682398
 21
13746.227411
 31
0.0
  0
LINE
  5
80D
100
AcDbEntity
  8
SUPORT1
 62
     5
100
AcDbLine
 10
15326.282398
 20
13993.627411
 30
0.0
 11
15348.882398
 21
13758.527411
 31
0.0
  0
LINE
  5
80E
100
AcDbEntity
  8
SUPORT1
 62
     5
100
AcDbLine
 10
16001.782398
 20
13656.027411
 30
0.0
 11
15638.482398
 21
13949.527411
 31
0.0
  0
LINE
  5
80F
100
AcDbEntity
  8
SUPORT1
 62
     5
100
AcDbLine
 10
15665.882398
 20
13927.427411
 30
0.0
 11
15669.782398
 21
13937.227411
 31
0.0
  0
LINE
  5
810
100
AcDbEntity
  8
SUPORT1
 62
     5
100
AcDbLine
 10
15586.282398
 20
13884.827411
 30
0.0
 11
15642.882398
 21
13954.827411
 31
0.0
  0
LINE
  5
811
100
AcDbEntity
  8
SUPORT1
 62
     5
100
AcDbLine
 10
15511.682398
 20
13945.127411
 30
0.0
 11
15586.282398
 21
13884.827411
 31
0.0
  0
LINE
  5
812
100
AcDbEntity
  8
SUPORT1
 62
     5
100
AcDbLine
 10
15237.782398
 20
13776.227411
 30
0.0
 11
15995.482398
 21
13655.627411
 31
0.0
  0
LINE
  5
813
100
AcDbEntity
  8
SUPORT1
 62
     5
100
AcDbLine
 10
15715.582398
 20
13392.327411
 30
0.0
 11
15425.682398
 21
13645.127411
 31
0.0
  0
LINE
  5
814
100
AcDbEntity
  8
SUPORT1
 62
     5
100
AcDbLine
 10
15582.782398
 20
13721.327411
 30
0.0
 11
15636.082398
 21
13853.527411
 31
0.0
  0
LINE
  5
815
100
AcDbEntity
  8
SUPORT1
 62
     5
100
AcDbLine
 10
15853.082398
 20
13678.227411
 30
0.0
 11
15590.682398
 21
13890.227411
 31
0.0
  0
LINE
  5
816
100
AcDbEntity
  8
SUPORT1
 62
     5
100
AcDbLine
 10
15519.082398
 20
13563.627411
 30
0.0
 11
15544.382398
 21
13626.227411
 31
0.0
  0
LINE
  5
817
100
AcDbEntity
  8
SUPORT1
 62
     5
100
AcDbLine
 10
15715.582398
 20
13392.327411
 30
0.0
 11
15731.182398
 21
13392.327411
 31
0.0
  0
LINE
  5
818
100
AcDbEntity
  8
SUPORT1
 62
     5
100
AcDbLine
 10
15731.182398
 20
13392.627411
 30
0.0
 11
15741.182398
 21
13392.627411
 31
0.0
  0
LINE
  5
819
100
AcDbEntity
  8
SUPORT1
 62
     5
100
AcDbLine
 10
15732.682398
 20
14064.927411
 30
0.0
 11
15591.682398
 21
14121.827411
 31
0.0
  0
LINE
  5
81A
100
AcDbEntity
  8
SUPORT1
 62
     5
100
AcDbLine
 10
15568.182398
 20
14015.227411
 30
0.0
 11
15642.882398
 21
13954.827411
 31
0.0
  0
LINE
  5
81B
100
AcDbEntity
  8
SUPORT1
 62
     5
100
AcDbLine
 10
15412.482398
 20
14018.027411
 30
0.0
 11
15513.282398
 21
13943.927411
 31
0.0
  0
LINE
  5
81C
100
AcDbEntity
  8
SUPORT1
 62
     5
100
AcDbLine
 10
15431.382398
 20
14130.427411
 30
0.0
 11
15568.882398
 21
14014.627411
 31
0.0
  0
LINE
  5
81D
100
AcDbEntity
  8
SUPORT1
 62
     5
100
AcDbLine
 10
15317.882398
 20
14008.827411
 30
0.0
 11
15312.982398
 21
14044.127411
 31
0.0
  0
LINE
  5
81E
100
AcDbEntity
  8
SUPORT1
 62
     5
100
AcDbLine
 10
15317.882398
 20
14008.827411
 30
0.0
 11
15319.382398
 21
13992.927411
 31
0.0
  0
LINE
  5
81F
100
AcDbEntity
  8
SUPORT1
 62
     5
100
AcDbLine
 10
15388.182398
 20
14084.327411
 30
0.0
 11
15238.382398
 21
14004.227411
 31
0.0
  0
LINE
  5
820
100
AcDbEntity
  8
SUPORT1
 62
     5
100
AcDbLine
 10
15408.982398
 20
14001.527411
 30
0.0
 11
15319.382398
 21
13992.927411
 31
0.0
  0
LINE
  5
821
100
AcDbEntity
  8
SUPORT1
 62
     5
100
AcDbLine
 10
15407.482398
 20
14017.527411
 30
0.0
 11
15408.982398
 21
14001.527411
 31
0.0
  0
LINE
  5
822
100
AcDbEntity
  8
SUPORT1
 62
     5
100
AcDbLine
 10
15553.482398
 20
14027.627411
 30
0.0
 11
15583.482398
 21
14101.927411
 31
0.0
  0
LINE
  5
823
100
AcDbEntity
  8
SUPORT1
 62
     5
100
AcDbLine
 10
15585.382398
 20
14106.027411
 30
0.0
 11
15591.682398
 21
14121.827411
 31
0.0
  0
LINE
  5
824
100
AcDbEntity
  8
SUPORT1
 62
     5
100
AcDbLine
 10
15584.582398
 20
14104.727411
 30
0.0
 11
15585.182398
 21
14106.127411
 31
0.0
  0
LINE
  5
825
100
AcDbEntity
  8
SUPORT1
 62
     5
100
AcDbLine
 10
15586.482398
 20
14100.727411
 30
0.0
 11
15587.582398
 21
14103.527411
 31
0.0
  0
LINE
  5
826
100
AcDbEntity
  8
SUPORT1
 62
     5
100
AcDbLine
 10
15679.782398
 20
13933.227411
 30
0.0
 11
15638.782398
 21
13949.727411
 31
0.0
  0
LINE
  5
827
100
AcDbEntity
  8
SUPORT1
 62
     5
100
AcDbLine
 10
15679.782398
 20
13933.227411
 30
0.0
 11
15724.782398
 21
14044.927411
 31
0.0
  0
LINE
  5
828
100
AcDbEntity
  8
SUPORT1
 62
     5
100
AcDbLine
 10
15726.282398
 20
14049.227411
 30
0.0
 11
15732.682398
 21
14064.927411
 31
0.0
  0
LINE
  5
829
100
AcDbEntity
  8
SUPORT1
 62
     5
100
AcDbLine
 10
15725.982398
 20
14047.727411
 30
0.0
 11
15726.482398
 21
14049.127411
 31
0.0
  0
LINE
  5
82A
100
AcDbEntity
  8
SUPORT1
 62
     5
100
AcDbLine
 10
15721.882398
 20
14046.127411
 30
0.0
 11
15722.982398
 21
14048.927411
 31
0.0
  0
LINE
  5
82B
100
AcDbEntity
  8
SUPORT1
 62
     5
100
AcDbLine
 10
16473.582398
 20
13606.627411
 30
0.0
 11
16338.782398
 21
13680.427411
 31
0.0
  0
LINE
  5
82C
100
AcDbEntity
  8
SUPORT1
 62
     5
100
AcDbLine
 10
16449.882398
 20
13551.527411
 30
0.0
 11
16337.882398
 21
13580.027411
 31
0.0
  0
LINE
  5
82D
100
AcDbEntity
  8
SUPORT1
 62
     5
100
AcDbLine
 10
16238.082398
 20
13435.227411
 30
0.0
 11
16661.382398
 21
13473.127411
 31
0.0
  0
LINE
  5
82E
100
AcDbEntity
  8
SUPORT1
 62
     5
100
AcDbLine
 10
16373.582398
 20
13447.327411
 30
0.0
 11
16604.582398
 21
13678.327411
 31
0.0
  0
LINE
  5
82F
100
AcDbEntity
  8
SUPORT1
 62
     5
100
AcDbLine
 10
16159.382398
 20
13537.627411
 30
0.0
 11
16125.882398
 21
13564.727411
 31
0.0
  0
LINE
  5
830
100
AcDbEntity
  8
SUPORT1
 62
     5
100
AcDbLine
 10
16159.582398
 20
13537.527411
 30
0.0
 11
16260.982398
 21
13455.327411
 31
0.0
  0
LINE
  5
831
100
AcDbEntity
  8
SUPORT1
 62
     5
100
AcDbLine
 10
16082.982398
 20
13424.327411
 30
0.0
 11
16272.182398
 21
13441.227411
 31
0.0
  0
LINE
  5
832
100
AcDbEntity
  8
SUPORT1
 62
     5
100
AcDbLine
 10
16337.682398
 20
13444.127411
 30
0.0
 11
16338.482398
 21
13435.127411
 31
0.0
  0
LINE
  5
833
100
AcDbEntity
  8
SUPORT1
 62
     5
100
AcDbLine
 10
16260.882398
 20
13455.327411
 30
0.0
 11
16262.282398
 21
13440.327411
 31
0.0
  0
LINE
  5
834
100
AcDbEntity
  8
SUPORT1
 62
     5
100
AcDbLine
 10
16272.182398
 20
13441.227411
 30
0.0
 11
16272.482398
 21
13438.227411
 31
0.0
  0
LINE
  5
835
100
AcDbEntity
  8
SUPORT1
 62
     5
100
AcDbLine
 10
16086.382398
 20
13498.627411
 30
0.0
 11
16092.882398
 21
13425.227411
 31
0.0
  0
LINE
  5
836
100
AcDbEntity
  8
SUPORT1
 62
     5
100
AcDbLine
 10
16028.182398
 20
13527.927411
 30
0.0
 11
16053.682398
 21
13559.527411
 31
0.0
  0
ARC
  5
837
100
AcDbEntity
  8
SUPORT1
 62
     5
100
AcDbCircle
 10
16131.182398
 20
13502.627411
 30
0.0
 40
45.0008
100
AcDbArc
 50
50.941678
 51
185.116017
  0
LINE
  5
838
100
AcDbEntity
  8
SUPORT1
 62
     5
100
AcDbLine
 10
16088.082398
 20
13479.627411
 30
0.0
 11
16028.182398
 21
13527.927411
 31
0.0
  0
LINE
  5
839
100
AcDbEntity
  8
SUPORT1
 62
     5
100
AcDbLine
 10
16653.182398
 20
13472.327411
 30
0.0
 11
16793.082398
 21
13612.327411
 31
0.0
  0
LINE
  5
83A
100
AcDbEntity
  8
SUPORT1
 62
     5
100
AcDbLine
 10
16475.582398
 20
13611.227411
 30
0.0
 11
16447.882398
 21
13546.927411
 31
0.0
  0
LINE
  5
83B
100
AcDbEntity
  8
SUPORT1
 62
     5
100
AcDbLine
 10
16447.882398
 20
13546.927411
 30
0.0
 11
16465.582398
 21
13539.327411
 31
0.0
  0
LINE
  5
83C
100
AcDbEntity
  8
SUPORT1
 62
     5
100
AcDbLine
 10
16475.582398
 20
13611.227411
 30
0.0
 11
16518.782398
 21
13592.627411
 31
0.0
  0
LINE
  5
83D
100
AcDbEntity
  8
SUPORT1
 62
     5
100
AcDbLine
 10
16194.082398
 20
15135.327411
 30
0.0
 11
15978.882398
 21
14713.627411
 31
0.0
  0
LINE
  5
83E
100
AcDbEntity
  8
SUPORT1
 62
     5
100
AcDbLine
 10
16042.682398
 20
15212.627411
 30
0.0
 11
15756.682398
 21
14652.327411
 31
0.0
  0
CIRCLE
  5
83F
100
AcDbEntity
  8
SUPORT1
 62
     5
100
AcDbCircle
 10
16026.882398
 20
14994.727411
 30
0.0
 40
35.25
  0
LINE
  5
840
100
AcDbEntity
  8
SUPORT1
 62
     5
100
AcDbLine
 10
15898.782398
 20
14559.727411
 30
0.0
 11
15947.480436
 21
14680.179639
 31
0.0
  0
LINE
  5
841
100
AcDbEntity
  8
SUPORT1
 62
     5
100
AcDbLine
 10
15852.082398
 20
14578.627411
 30
0.0
 11
15903.482398
 21
14557.827411
 31
0.0
  0
LINE
  5
842
100
AcDbEntity
  8
SUPORT1
 62
     5
100
AcDbLine
 10
16180.982398
 20
15219.727411
 30
0.0
 11
16175.782398
 21
15209.527411
 31
0.0
  0
LINE
  5
843
100
AcDbEntity
  8
SUPORT1
 62
     5
100
AcDbLine
 10
16118.682398
 20
15251.627411
 30
0.0
 11
16180.982398
 21
15219.727411
 31
0.0
  0
LINE
  5
844
100
AcDbEntity
  8
SUPORT1
 62
     5
100
AcDbLine
 10
16042.582398
 20
15212.627411
 30
0.0
 11
16118.682398
 21
15251.627411
 31
0.0
  0
LINE
  5
845
100
AcDbEntity
  8
SUPORT1
 62
     5
100
AcDbLine
 10
16182.482398
 20
15210.527411
 30
0.0
 11
16194.082398
 21
15135.327411
 31
0.0
  0
LINE
  5
846
100
AcDbEntity
  8
SUPORT1
 62
     5
100
AcDbLine
 10
19109.082398
 20
13482.627411
 30
0.0
 11
19109.082398
 21
12472.627411
 31
0.0
  0
LINE
  5
847
100
AcDbEntity
  8
SUPORT1
  6
CENTER
 62
     5
100
AcDbLine
 10
19431.182398
 20
13763.227411
 30
0.0
 11
19431.182398
 21
12492.527411
 31
0.0
  0
LINE
  5
848
100
AcDbEntity
  8
SUPORT1
 62
     5
100
AcDbLine
 10
19331.282398
 20
13467.627411
 30
0.0
 11
19231.282398
 21
13367.627411
 31
0.0
  0
LINE
  5
849
100
AcDbEntity
  8
SUPORT1
 62
     5
100
AcDbLine
 10
19121.182398
 20
12472.627411
 30
0.0
 11
19511.182398
 21
12497.627411
 31
0.0
  0
LINE
  5
84A
100
AcDbEntity
  8
SUPORT1
 62
     5
100
AcDbLine
 10
19109.082398
 20
12784.954931
 30
0.0
 11
19511.182398
 21
12707.627411
 31
0.0
  0
LINE
  5
84B
100
AcDbEntity
  8
SUPORT1
 62
     5
100
AcDbLine
 10
18743.682398
 20
12768.427411
 30
0.0
 11
19109.082398
 21
12774.027411
 31
0.0
  0
LINE
  5
84C
100
AcDbEntity
  8
SUPORT1
 62
     5
100
AcDbLine
 10
18712.382398
 20
12523.227411
 30
0.0
 11
19109.182398
 21
12472.527411
 31
0.0
  0
CIRCLE
  5
84D
100
AcDbEntity
  8
SUPORT1
 62
     5
100
AcDbCircle
 10
18551.982398
 20
12678.427411
 30
0.0
 40
19.05
  0
CIRCLE
  5
84E
100
AcDbEntity
  8
SUPORT1
 62
     5
100
AcDbCircle
 10
18551.982398
 20
12678.427411
 30
0.0
 40
13.0
  0
LINE
  5
84F
100
AcDbEntity
  8
SUPORT1
 62
     5
100
AcDbLine
 10
18486.182398
 20
12667.327411
 30
0.0
 11
18495.782398
 21
12670.027411
 31
0.0
  0
LINE
  5
850
100
AcDbEntity
  8
SUPORT1
 62
     5
100
AcDbLine
 10
18546.382398
 20
12602.227411
 30
0.0
 11
18500.482398
 21
12622.027411
 31
0.0
  0
LINE
  5
851
100
AcDbEntity
  8
SUPORT1
 62
     5
100
AcDbLine
 10
18604.982398
 20
12738.327411
 30
0.0
 11
18546.382398
 21
12602.227411
 31
0.0
  0
LINE
  5
852
100
AcDbEntity
  8
SUPORT1
 62
     5
100
AcDbLine
 10
18559.082398
 20
12758.127411
 30
0.0
 11
18500.482398
 21
12622.027411
 31
0.0
  0
LINE
  5
853
100
AcDbEntity
  8
SUPORT1
 62
     5
100
AcDbLine
 10
18604.982398
 20
12738.327411
 30
0.0
 11
18559.082398
 21
12758.127411
 31
0.0
  0
LINE
  5
854
100
AcDbEntity
  8
SUPORT1
 62
     5
100
AcDbLine
 10
18488.682398
 20
12673.027411
 30
0.0
 11
18517.182398
 21
12660.827411
 31
0.0
  0
LINE
  5
855
100
AcDbEntity
  8
SUPORT1
 62
     5
100
AcDbLine
 10
18512.382398
 20
12728.127411
 30
0.0
 11
18540.882398
 21
12715.927411
 31
0.0
  0
LINE
  5
856
100
AcDbEntity
  8
SUPORT1
  6
CENTER
 62
     5
100
AcDbLine
 10
18561.982398
 20
12701.627411
 30
0.0
 11
18542.182398
 21
12655.627411
 31
0.0
  0
LINE
  5
857
100
AcDbEntity
  8
SUPORT1
 62
     5
100
AcDbLine
 10
18586.582398
 20
12695.627411
 30
0.0
 11
18739.882398
 21
12738.827411
 31
0.0
  0
LINE
  5
858
100
AcDbEntity
  8
SUPORT1
 62
     5
100
AcDbLine
 10
18481.782398
 20
12657.027411
 30
0.0
 11
18519.382398
 21
12744.227411
 31
0.0
  0
LINE
  5
859
100
AcDbEntity
  8
SUPORT1
 62
     5
100
AcDbLine
 10
18601.982398
 20
12539.327411
 30
0.0
 11
18712.582398
 21
12525.227411
 31
0.0
  0
LINE
  5
85A
100
AcDbEntity
  8
SUPORT1
 62
     5
100
AcDbLine
 10
18603.282398
 20
12549.227411
 30
0.0
 11
18601.982398
 21
12539.327411
 31
0.0
  0
LINE
  5
85B
100
AcDbEntity
  8
SUPORT1
 62
     5
100
AcDbLine
 10
18743.682398
 20
12768.427411
 30
0.0
 11
18712.382398
 21
12523.227411
 31
0.0
  0
LINE
  5
85C
100
AcDbEntity
  8
SUPORT1
 62
     5
100
AcDbLine
 10
18372.50012
 20
12807.513736
 30
0.0
 11
18742.682398
 21
12760.327411
 31
0.0
  0
LINE
  5
85D
100
AcDbEntity
  8
SUPORT1
 62
     5
100
AcDbLine
 10
19109.082398
 20
12762.027411
 30
0.0
 11
19109.182398
 21
12758.027411
 31
0.0
  0
LINE
  5
85E
100
AcDbEntity
  8
SUPORT1
 62
     5
100
AcDbLine
 10
19108.882398
 20
12762.027411
 30
0.0
 11
19109.182398
 21
12758.027411
 31
0.0
  0
LINE
  5
85F
100
AcDbEntity
  8
SUPORT1
 62
     5
100
AcDbLine
 10
19109.082398
 20
12472.627411
 30
0.0
 11
19121.082398
 21
12472.627411
 31
0.0
  0
LINE
  5
860
100
AcDbEntity
  8
SUPORT1
 62
     5
100
AcDbLine
 10
19231.182398
 20
13367.627411
 30
0.0
 11
19231.182398
 21
12761.527411
 31
0.0
  0
LINE
  5
861
100
AcDbEntity
  8
SUPORT1
  6
CENTER
 62
     5
100
AcDbLine
 10
19333.082398
 20
12602.627411
 30
0.0
 11
19542.382398
 21
12602.627411
 31
0.0
  0
LINE
  5
862
100
AcDbEntity
  8
SUPORT1
 62
     5
100
AcDbLine
 10
19415.782398
 20
12660.627411
 30
0.0
 11
19503.882398
 21
12684.227411
 31
0.0
  0
LINE
  5
863
100
AcDbEntity
  8
SUPORT1
 62
     5
100
AcDbLine
 10
19415.682398
 20
12544.727411
 30
0.0
 11
19503.782398
 21
12521.127411
 31
0.0
  0
LINE
  5
864
100
AcDbEntity
  8
SUPORT1
 62
     5
100
AcDbLine
 10
19511.182398
 20
12707.627411
 30
0.0
 11
19511.182398
 21
12693.927411
 31
0.0
  0
LINE
  5
865
100
AcDbEntity
  8
SUPORT1
 62
     5
100
AcDbLine
 10
19511.182398
 20
12511.427411
 30
0.0
 11
19511.182398
 21
12497.627411
 31
0.0
  0
LINE
  5
866
100
AcDbEntity
  8
SUPORT1
 62
     5
100
AcDbLine
 10
19511.182398
 20
12511.427411
 30
0.0
 11
19511.182398
 21
12497.627411
 31
0.0
  0
ARC
  5
867
100
AcDbEntity
  8
SUPORT1
 62
     5
100
AcDbCircle
 10
19501.182398
 20
12693.927411
 30
0.0
 40
10.0004
100
AcDbArc
 50
285.008974
 51
0.0
  0
ARC
  5
868
100
AcDbEntity
  8
SUPORT1
 62
     5
100
AcDbCircle
 10
19501.182398
 20
12511.427411
 30
0.0
 40
10.0
100
AcDbArc
 50
0.0
 51
74.990722
  0
ARC
  5
869
100
AcDbEntity
  8
SUPORT1
 62
     5
100
AcDbCircle
 10
19431.182398
 20
12602.627411
 30
0.0
 40
60.0
100
AcDbArc
 50
104.588976
 51
255.945977
  0
LINE
  5
86A
100
AcDbEntity
  8
SUPORT1
 62
     5
100
AcDbLine
 10
19040.282398
 20
13482.627411
 30
0.0
 11
19431.182398
 21
13482.627411
 31
0.0
  0
LINE
  5
86B
100
AcDbEntity
  8
SUPORT1
 62
     5
100
AcDbLine
 10
19022.082398
 20
13686.427411
 30
0.0
 11
19421.882398
 21
13722.227411
 31
0.0
  0
LINE
  5
86C
100
AcDbEntity
  8
SUPORT1
 62
     5
100
AcDbLine
 10
18564.082398
 20
13643.427411
 30
0.0
 11
19022.182398
 21
13684.427411
 31
0.0
  0
LINE
  5
86D
100
AcDbEntity
  8
SUPORT1
 62
     5
100
AcDbLine
 10
18620.882398
 20
13592.327411
 30
0.0
 11
19029.082398
 21
13518.427411
 31
0.0
  0
LINE
  5
86E
100
AcDbEntity
  8
SUPORT1
 62
     5
100
AcDbLine
 10
18618.182398
 20
13622.227411
 30
0.0
 11
19016.582398
 21
13657.827411
 31
0.0
  0
LINE
  5
86F
100
AcDbEntity
  8
SUPORT1
 62
     5
100
AcDbLine
 10
18618.182398
 20
13622.227411
 30
0.0
 11
18620.782398
 21
13592.327411
 31
0.0
  0
LINE
  5
870
100
AcDbEntity
  8
SUPORT1
 62
     5
100
AcDbLine
 10
18564.082398
 20
13643.427411
 30
0.0
 11
18564.882398
 21
13634.527411
 31
0.0
  0
LINE
  5
871
100
AcDbEntity
  8
SUPORT1
 62
     5
100
AcDbLine
 10
19022.082398
 20
13686.427411
 30
0.0
 11
19040.282398
 21
13482.627411
 31
0.0
  0
LINE
  5
872
100
AcDbEntity
  8
SUPORT1
 62
     5
100
AcDbLine
 10
19016.582398
 20
13657.827411
 30
0.0
 11
19029.082398
 21
13518.427411
 31
0.0
  0
ARC
  5
873
100
AcDbEntity
  8
SUPORT1
 62
     5
100
AcDbCircle
 10
19431.182398
 20
13602.627411
 30
0.0
 40
120.0
100
AcDbArc
 50
270.000001
 51
95.117182
  0
CIRCLE
  5
874
100
AcDbEntity
  8
SUPORT1
 62
     5
100
AcDbCircle
 10
19431.182398
 20
13602.627411
 30
0.0
 40
50.0
  0
CIRCLE
  5
875
100
AcDbEntity
  8
SUPORT1
 62
     5
100
AcDbCircle
 10
19431.182398
 20
13602.627411
 30
0.0
 40
50.0
  0
LINE
  5
876
100
AcDbEntity
  8
SUPORT1
 62
     5
100
AcDbLine
 10
19331.182398
 20
13482.627411
 30
0.0
 11
19331.182398
 21
13467.627411
 31
0.0
  0
LINE
  5
877
100
AcDbEntity
  8
SUPORT1
  6
CENTER
 62
     5
100
AcDbLine
 10
19346.282398
 20
13602.627411
 30
0.0
 11
19502.382398
 21
13602.627411
 31
0.0
  0
POINT
  5
878
100
AcDbEntity
  8
SUPORT1
 62
     5
100
AcDbPoint
 10
19431.182398
 20
12602.627411
 30
0.0
  0
LINE
  5
879
100
AcDbEntity
  8
LJIB
  6
CENTER
 62
     5
100
AcDbLine
 10
3578.596447
 20
13418.546584
 30
0.0
 11
9570.342079
 21
13418.546584
 31
0.0
  0
LINE
  5
87A
100
AcDbEntity
  8
LJIB
 62
     5
100
AcDbLine
 10
9146.664079
 20
13363.676471
 30
0.0
 11
3936.680079
 21
12963.678271
 31
0.0
  0
LINE
  5
87B
100
AcDbEntity
  8
LJIB
 62
     5
100
AcDbLine
 10
9146.664079
 20
13273.415271
 30
0.0
 11
4192.000079
 21
12893.018271
 31
0.0
  0
LINE
  5
87C
100
AcDbEntity
  8
LJIB
 62
     5
100
AcDbLine
 10
3936.720079
 20
13873.402271
 30
0.0
 11
9146.664079
 21
13473.407071
 31
0.0
  0
LINE
  5
87D
100
AcDbEntity
  8
LJIB
 62
     5
100
AcDbLine
 10
4192.000079
 20
13944.065271
 30
0.0
 11
9146.664079
 21
13563.669271
 31
0.0
  0
LINE
  5
87E
100
AcDbEntity
  8
LJIB
 62
     5
100
AcDbLine
 10
5508.390079
 20
13418.54289
 30
0.0
 11
5630.800079
 21
13093.741271
 31
0.0
  0
LINE
  5
87F
100
AcDbEntity
  8
LJIB
 62
     5
100
AcDbLine
 10
5630.800079
 20
13743.331271
 30
0.0
 11
5378.670079
 21
13074.370271
 31
0.0
  0
LINE
  5
880
100
AcDbEntity
  8
LJIB
 62
     5
100
AcDbLine
 10
4359.540079
 20
12996.129271
 30
0.0
 11
4490.300079
 21
13418.535918
 31
0.0
  0
LINE
  5
881
100
AcDbEntity
  8
LJIB
 62
     5
100
AcDbLine
 10
4359.570079
 20
13840.940271
 30
0.0
 11
4615.020079
 21
13015.757271
 31
0.0
  0
LINE
  5
882
100
AcDbEntity
  8
LJIB
 62
     5
100
AcDbLine
 10
4405.360079
 20
13837.423271
 30
0.0
 11
4658.680079
 21
13019.106271
 31
0.0
  0
POINT
  5
883
100
AcDbEntity
  8
LJIB
 62
     5
100
AcDbPoint
 10
3806.690079
 20
13418.546584
 30
0.0
  0
LINE
  5
884
100
AcDbEntity
  8
LJIB
 62
     5
100
AcDbLine
 10
4334.630079
 20
12994.233271
 30
0.0
 11
4202.450079
 21
13418.552652
 31
0.0
  0
LINE
  5
885
100
AcDbEntity
  8
LJIB
 62
     5
100
AcDbLine
 10
3993.030079
 20
13869.079051
 30
0.0
 11
3993.030079
 21
12968.00456
 31
0.0
  0
LINE
  5
886
100
AcDbEntity
  8
LJIB
 62
     5
100
AcDbLine
 10
3950.340079
 20
13872.35659
 30
0.0
 11
3950.340079
 21
12964.727021
 31
0.0
  0
LINE
  5
887
100
AcDbEntity
  8
LJIB
 62
     5
100
AcDbLine
 10
4334.620079
 20
13842.848271
 30
0.0
 11
4063.794634
 21
12973.437531
 31
0.0
  0
LINE
  5
888
100
AcDbEntity
  8
LJIB
 62
     5
100
AcDbLine
 10
4290.940079
 20
13846.201271
 30
0.0
 11
4017.974364
 21
12969.919665
 31
0.0
  0
LINE
  5
889
100
AcDbEntity
  8
LJIB
  6
CENTER
 62
     5
100
AcDbLine
 10
3806.690079
 20
14013.724271
 30
0.0
 11
3806.690079
 21
12807.684271
 31
0.0
  0
LINE
  5
88A
100
AcDbEntity
  8
LJIB
 62
     5
100
AcDbLine
 10
5586.450079
 20
13746.737271
 30
0.0
 11
5331.680079
 21
13070.764271
 31
0.0
  0
LINE
  5
88B
100
AcDbEntity
  8
LJIB
 62
     5
100
AcDbLine
 10
4859.430079
 20
13418.548796
 30
0.0
 11
4982.730079
 21
13043.990271
 31
0.0
  0
LINE
  5
88C
100
AcDbEntity
  8
LJIB
 62
     5
100
AcDbLine
 10
4683.590079
 20
13021.000271
 30
0.0
 11
4938.860079
 21
13796.456271
 31
0.0
  0
LINE
  5
88D
100
AcDbEntity
  8
LJIB
 62
     5
100
AcDbLine
 10
4729.710079
 20
13024.547271
 30
0.0
 11
4982.710079
 21
13793.089271
 31
0.0
  0
LINE
  5
88E
100
AcDbEntity
  8
LJIB
 62
     5
100
AcDbLine
 10
5007.640079
 20
13045.879271
 30
0.0
 11
5138.600079
 21
13418.532302
 31
0.0
  0
LINE
  5
88F
100
AcDbEntity
  8
LJIB
 62
     5
100
AcDbLine
 10
5007.650079
 20
13791.183271
 30
0.0
 11
5262.690079
 21
13065.471271
 31
0.0
  0
LINE
  5
890
100
AcDbEntity
  8
LJIB
 62
     5
100
AcDbLine
 10
5054.160079
 20
13787.614271
 30
0.0
 11
5306.760079
 21
13068.863271
 31
0.0
  0
LINE
  5
891
100
AcDbEntity
  8
LJIB
 62
     5
100
AcDbLine
 10
3886.670079
 20
12971.049271
 30
0.0
 11
3815.330079
 21
12980.950271
 31
0.0
  0
LINE
  5
892
100
AcDbEntity
  8
LJIB
 62
     5
100
AcDbLine
 10
3886.680079
 20
12866.048271
 30
0.0
 11
3815.340079
 21
12856.147271
 31
0.0
  0
ARC
  5
893
100
AcDbEntity
  8
LJIB
 62
     5
100
AcDbCircle
 10
3806.660079
 20
12918.544271
 30
0.0
 40
62.9999
100
AcDbArc
 50
82.098014
 51
277.902004
  0
CIRCLE
  5
894
100
AcDbEntity
  8
LJIB
 62
     5
100
AcDbCircle
 10
3806.690079
 20
12918.548271
 30
0.0
 40
30.0
  0
LINE
  5
895
100
AcDbEntity
  8
LJIB
 62
     5
100
AcDbLine
 10
4192.380079
 20
12888.035271
 30
0.0
 11
3942.690079
 21
12868.865271
 31
0.0
  0
LINE
  5
896
100
AcDbEntity
  8
LJIB
 62
     5
100
AcDbLine
 10
3942.690079
 20
12873.879507
 30
0.0
 11
3942.690079
 21
12873.878271
 31
0.0
  0
LINE
  5
897
100
AcDbEntity
  8
LJIB
 62
     5
100
AcDbLine
 10
3942.730079
 20
12873.880271
 30
0.0
 11
3936.730079
 21
12873.419271
 31
0.0
  0
LINE
  5
898
100
AcDbEntity
  8
LJIB
 62
     5
100
AcDbLine
 10
3886.680079
 20
12971.048271
 30
0.0
 11
3936.680079
 21
12971.048271
 31
0.0
  0
LINE
  5
899
100
AcDbEntity
  8
LJIB
 62
     5
100
AcDbLine
 10
3886.680079
 20
12866.048271
 30
0.0
 11
3936.680079
 21
12866.048271
 31
0.0
  0
LINE
  5
89A
100
AcDbEntity
  8
LJIB
 62
     5
100
AcDbLine
 10
3936.680079
 20
12971.048271
 30
0.0
 11
3936.680079
 21
12866.048271
 31
0.0
  0
LINE
  5
89B
100
AcDbEntity
  8
LJIB
 62
     5
100
AcDbLine
 10
3942.720079
 20
12873.880271
 30
0.0
 11
3943.110079
 21
12868.895271
 31
0.0
  0
LINE
  5
89C
100
AcDbEntity
  8
LJIB
 62
     5
100
AcDbLine
 10
3886.680079
 20
12971.048271
 30
0.0
 11
3886.680079
 21
12866.048271
 31
0.0
  0
LINE
  5
89D
100
AcDbEntity
  8
LJIB
 62
     5
100
AcDbLine
 10
4191.977122
 20
12893.275463
 30
0.0
 11
4192.380079
 21
12888.035271
 31
0.0
  0
LINE
  5
89E
100
AcDbEntity
  8
LJIB
 62
     5
100
AcDbLine
 10
4290.950079
 20
12990.877271
 30
0.0
 11
4180.090079
 21
13346.764471
 31
0.0
  0
LINE
  5
89F
100
AcDbEntity
  8
LJIB
 62
     5
100
AcDbLine
 10
4405.330079
 20
12999.646271
 30
0.0
 11
4512.660079
 21
13346.341971
 31
0.0
  0
LINE
  5
8A0
100
AcDbEntity
  8
LJIB
 62
     5
100
AcDbLine
 10
4359.540079
 20
12996.129271
 30
0.0
 11
4359.540079
 21
12996.132271
 31
0.0
  0
LINE
  5
8A1
100
AcDbEntity
  8
LJIB
 62
     5
100
AcDbLine
 10
4836.950079
 20
13350.269771
 30
0.0
 11
4938.880079
 21
13040.624271
 31
0.0
  0
LINE
  5
8A2
100
AcDbEntity
  8
LJIB
 62
     5
100
AcDbLine
 10
5054.150079
 20
13049.455271
 30
0.0
 11
5161.230079
 21
13354.144271
 31
0.0
  0
LINE
  5
8A3
100
AcDbEntity
  8
LJIB
 62
     5
100
AcDbLine
 10
5485.560079
 20
13358.011271
 30
0.0
 11
5586.450079
 21
13090.336271
 31
0.0
  0
ARC
  5
8A4
100
AcDbEntity
  8
LJIB
 62
     5
100
AcDbCircle
 10
3806.660079
 20
13918.537271
 30
0.0
 40
62.9999
100
AcDbArc
 50
82.098014
 51
277.902004
  0
LINE
  5
8A5
100
AcDbEntity
  8
LJIB
 62
     5
100
AcDbLine
 10
3886.680079
 20
13866.041271
 30
0.0
 11
3815.340079
 21
13856.140271
 31
0.0
  0
LINE
  5
8A6
100
AcDbEntity
  8
LJIB
 62
     5
100
AcDbLine
 10
3886.670079
 20
13971.042271
 30
0.0
 11
3815.330079
 21
13980.943271
 31
0.0
  0
CIRCLE
  5
8A7
100
AcDbEntity
  8
LJIB
 62
     5
100
AcDbCircle
 10
3806.690079
 20
13918.541271
 30
0.0
 40
30.0
  0
LINE
  5
8A8
100
AcDbEntity
  8
LJIB
 62
     5
100
AcDbLine
 10
4729.730079
 20
13812.526271
 30
0.0
 11
4836.950079
 21
13486.819771
 31
0.0
  0
LINE
  5
8A9
100
AcDbEntity
  8
LJIB
 62
     5
100
AcDbLine
 10
4683.620079
 20
13816.066271
 30
0.0
 11
4814.480079
 21
13418.54534
 31
0.0
  0
LINE
  5
8AA
100
AcDbEntity
  8
LJIB
 62
     5
100
AcDbLine
 10
3886.680079
 20
13971.041271
 30
0.0
 11
3886.680079
 21
13866.041271
 31
0.0
  0
LINE
  5
8AB
100
AcDbEntity
  8
LJIB
 62
     5
100
AcDbLine
 10
3936.680079
 20
13971.041271
 30
0.0
 11
3936.680079
 21
13866.041271
 31
0.0
  0
LINE
  5
8AC
100
AcDbEntity
  8
LJIB
 62
     5
100
AcDbLine
 10
3943.110079
 20
13968.189271
 30
0.0
 11
4192.380079
 21
13949.051271
 31
0.0
  0
LINE
  5
8AD
100
AcDbEntity
  8
LJIB
 62
     5
100
AcDbLine
 10
4157.730079
 20
13418.552619
 30
0.0
 11
4017.982958
 21
13867.163286
 31
0.0
  0
LINE
  5
8AE
100
AcDbEntity
  8
LJIB
 62
     5
100
AcDbLine
 10
3886.680079
 20
13866.041271
 30
0.0
 11
3936.680079
 21
13866.041271
 31
0.0
  0
LINE
  5
8AF
100
AcDbEntity
  8
LJIB
 62
     5
100
AcDbLine
 10
4184.100079
 20
13854.410271
 30
0.0
 11
4183.710079
 21
13849.425271
 31
0.0
  0
LINE
  5
8B0
100
AcDbEntity
  8
LJIB
 62
     5
100
AcDbLine
 10
4180.090079
 20
13490.331471
 30
0.0
 11
4063.802645
 21
13863.645464
 31
0.0
  0
LINE
  5
8B1
100
AcDbEntity
  8
LJIB
 62
     5
100
AcDbLine
 10
4192.380079
 20
13949.051271
 30
0.0
 11
4190.770079
 21
13928.113271
 31
0.0
  0
LINE
  5
8B2
100
AcDbEntity
  8
LJIB
 62
     5
100
AcDbLine
 10
4535.000079
 20
13418.53331
 30
0.0
 11
4658.650079
 21
13817.969271
 31
0.0
  0
LINE
  5
8B3
100
AcDbEntity
  8
LJIB
 62
     5
100
AcDbLine
 10
4512.650079
 20
13490.727671
 30
0.0
 11
4614.990079
 21
13821.325271
 31
0.0
  0
LINE
  5
8B4
100
AcDbEntity
  8
LJIB
 62
     5
100
AcDbLine
 10
3980.113221
 20
14035.756786
 30
0.0
 11
4001.720079
 21
13963.693271
 31
0.0
  0
ARC
  5
8B5
100
AcDbEntity
  8
LJIB
 62
     5
100
AcDbCircle
 10
3951.730079
 20
14026.041271
 30
0.0
 40
29.9999
100
AcDbArc
 50
18.896014
 51
90.038197
  0
ARC
  5
8B6
100
AcDbEntity
  8
LJIB
 62
     5
100
AcDbCircle
 10
3951.690079
 20
14026.041271
 30
0.0
 40
29.9999
100
AcDbArc
 50
89.961803
 51
161.103986
  0
LINE
  5
8B7
100
AcDbEntity
  8
LJIB
 62
     5
100
AcDbLine
 10
3923.260079
 20
14035.532271
 30
0.0
 11
3901.710079
 21
13971.030271
 31
0.0
  0
LINE
  5
8B8
100
AcDbEntity
  8
LJIB
 62
     5
100
AcDbLine
 10
3943.110079
 20
13968.189271
 30
0.0
 11
3942.720079
 21
13963.203271
 31
0.0
  0
LINE
  5
8B9
100
AcDbEntity
  8
LJIB
 62
     5
100
AcDbLine
 10
3943.080079
 20
13971.041271
 30
0.0
 11
3943.080079
 21
13968.193271
 31
0.0
  0
CIRCLE
  5
8BA
100
AcDbEntity
  8
LJIB
 62
     5
100
AcDbCircle
 10
3951.710079
 20
14026.020271
 30
0.0
 40
17.5
  0
LINE
  5
8BB
100
AcDbEntity
  8
LJIB
 62
     5
100
AcDbLine
 10
3886.680079
 20
13971.041271
 30
0.0
 11
3943.080079
 21
13971.041271
 31
0.0
  0
LINE
  5
8BC
100
AcDbEntity
  8
LJIB
 62
     5
100
AcDbLine
 10
5161.230079
 20
13482.919371
 30
0.0
 11
5262.680079
 21
13771.593271
 31
0.0
  0
LINE
  5
8BD
100
AcDbEntity
  8
LJIB
 62
     5
100
AcDbLine
 10
5183.860079
 20
13418.53151
 30
0.0
 11
5306.750079
 21
13768.210271
 31
0.0
  0
LINE
  5
8BE
100
AcDbEntity
  8
LJIB
 62
     5
100
AcDbLine
 10
5378.670079
 20
13762.704271
 30
0.0
 11
5485.570079
 21
13479.078571
 31
0.0
  0
LINE
  5
8BF
100
AcDbEntity
  8
LJIB
 62
     5
100
AcDbLine
 10
5331.680079
 20
13766.308271
 30
0.0
 11
5462.750079
 21
13418.542402
 31
0.0
  0
LINE
  5
8C0
100
AcDbEntity
  8
LJIB
 62
     5
100
AcDbLine
 10
7382.640079
 20
13418.533682
 30
0.0
 11
7430.000079
 21
13329.920571
 31
0.0
  0
LINE
  5
8C1
100
AcDbEntity
  8
LJIB
 62
     5
100
AcDbLine
 10
7430.020079
 20
13507.152371
 30
0.0
 11
7276.580079
 21
13220.087271
 31
0.0
  0
LINE
  5
8C2
100
AcDbEntity
  8
LJIB
 62
     5
100
AcDbLine
 10
7395.290079
 20
13532.753271
 30
0.0
 11
7226.100079
 21
13216.210271
 31
0.0
  0
ARC
  5
8C3
100
AcDbEntity
  8
LJIB
 62
     5
100
AcDbCircle
 10
7381.680079
 20
13418.542922
 30
0.0
 40
99.9999
100
AcDbArc
 50
306.398004
 51
53.602207
  0
LINE
  5
8C4
100
AcDbEntity
  8
LJIB
 62
     5
100
AcDbLine
 10
7201.150079
 20
13214.302271
 30
0.0
 11
7000.900079
 21
13638.128271
 31
0.0
  0
LINE
  5
8C5
100
AcDbEntity
  8
LJIB
 62
     5
100
AcDbLine
 10
6807.650079
 20
13418.530825
 30
0.0
 11
6926.970079
 21
13193.244271
 31
0.0
  0
LINE
  5
8C6
100
AcDbEntity
  8
LJIB
 62
     5
100
AcDbLine
 10
6303.810079
 20
13145.398271
 30
0.0
 11
6435.200079
 21
13418.525218
 31
0.0
  0
LINE
  5
8C7
100
AcDbEntity
  8
LJIB
 62
     5
100
AcDbLine
 10
6157.720079
 20
13418.539563
 30
0.0
 11
6278.890079
 21
13143.498271
 31
0.0
  0
LINE
  5
8C8
100
AcDbEntity
  8
LJIB
 62
     5
100
AcDbLine
 10
6557.230079
 20
13164.864271
 30
0.0
 11
6303.800079
 21
13691.664271
 31
0.0
  0
LINE
  5
8C9
100
AcDbEntity
  8
LJIB
 62
     5
100
AcDbLine
 10
6602.930079
 20
13168.371271
 30
0.0
 11
6353.000079
 21
13687.889271
 31
0.0
  0
LINE
  5
8CA
100
AcDbEntity
  8
LJIB
 62
     5
100
AcDbLine
 10
6880.550079
 20
13647.379271
 30
0.0
 11
6627.870079
 21
13170.278271
 31
0.0
  0
LINE
  5
8CB
100
AcDbEntity
  8
LJIB
 62
     5
100
AcDbLine
 10
6926.980079
 20
13643.813271
 30
0.0
 11
6678.230079
 21
13174.143271
 31
0.0
  0
LINE
  5
8CC
100
AcDbEntity
  8
LJIB
 62
     5
100
AcDbLine
 10
6951.910079
 20
13195.157271
 30
0.0
 11
7057.450079
 21
13418.526518
 31
0.0
  0
LINE
  5
8CD
100
AcDbEntity
  8
LJIB
 62
     5
100
AcDbLine
 10
7155.580079
 20
13210.802271
 30
0.0
 11
6951.900079
 21
13641.890271
 31
0.0
  0
LINE
  5
8CE
100
AcDbEntity
  8
LJIB
 62
     5
100
AcDbLine
 10
5655.730079
 20
13095.640271
 30
0.0
 11
5786.910079
 21
13418.528612
 31
0.0
  0
LINE
  5
8CF
100
AcDbEntity
  8
LJIB
 62
     5
100
AcDbLine
 10
5910.140079
 20
13115.187271
 30
0.0
 11
5655.720079
 21
13741.430271
 31
0.0
  0
LINE
  5
8D0
100
AcDbEntity
  8
LJIB
 62
     5
100
AcDbLine
 10
5954.830079
 20
13118.617271
 30
0.0
 11
5703.290079
 21
13737.777271
 31
0.0
  0
LINE
  5
8D1
100
AcDbEntity
  8
LJIB
 62
     5
100
AcDbLine
 10
6233.730079
 20
13697.045271
 30
0.0
 11
5979.760079
 21
13120.527271
 31
0.0
  0
LINE
  5
8D2
100
AcDbEntity
  8
LJIB
 62
     5
100
AcDbLine
 10
6278.860079
 20
13693.581271
 30
0.0
 11
6028.050079
 21
13124.235271
 31
0.0
  0
POINT
  5
8D3
100
AcDbEntity
  8
LJIB
 62
     5
100
AcDbPoint
 10
9306.661544
 20
13418.546584
 30
0.0
  0
LINE
  5
8D4
100
AcDbEntity
  8
LJIB
 62
     5
100
AcDbLine
 10
9481.662079
 20
13498.542471
 30
0.0
 11
9481.662079
 21
13338.548871
 31
0.0
  0
ARC
  5
8D5
100
AcDbEntity
  8
LJIB
 62
     5
100
AcDbCircle
 10
9306.660079
 20
13418.547271
 30
0.0
 40
80.0
100
AcDbArc
 50
89.629793
 51
270.000001
  0
ARC
  5
8D6
100
AcDbEntity
  8
LJIB
 62
     5
100
AcDbCircle
 10
9306.659835
 20
13418.547271
 30
0.0
 40
79.9999
100
AcDbArc
 50
308.681986
 51
51.317824
  0
LINE
  5
8D7
100
AcDbEntity
  8
LJIB
  6
CENTER
 62
     5
100
AcDbLine
 10
9306.661544
 20
13578.312271
 30
0.0
 11
9306.661544
 21
13246.321271
 31
0.0
  0
LINE
  5
8D8
100
AcDbEntity
  8
LJIB
  6
CENTER
 62
     5
100
AcDbLine
 10
9431.662079
 20
13658.946271
 30
0.0
 11
9431.662079
 21
13241.391271
 31
0.0
  0
LINE
  5
8D9
100
AcDbEntity
  8
LJIB
 62
     5
100
AcDbLine
 10
9146.666079
 20
13578.542271
 30
0.0
 11
9146.666079
 21
13258.548271
 31
0.0
  0
ARC
  5
8DA
100
AcDbEntity
  8
LJIB
 62
     5
100
AcDbCircle
 10
8869.663079
 20
13418.542922
 30
0.0
 40
39.9999
100
AcDbArc
 50
306.905989
 51
53.471916
  0
LINE
  5
8DB
100
AcDbEntity
  8
LJIB
 62
     5
100
AcDbLine
 10
9531.662079
 20
13446.047071
 30
0.0
 11
9531.662079
 21
13391.047271
 31
0.0
  0
LINE
  5
8DC
100
AcDbEntity
  8
LJIB
 62
     5
100
AcDbLine
 10
9544.662079
 20
13446.047071
 30
0.0
 11
9544.662079
 21
13391.047171
 31
0.0
  0
LINE
  5
8DD
100
AcDbEntity
  8
LJIB
 62
     5
100
AcDbLine
 10
7358.430079
 20
13373.248171
 30
0.0
 11
7395.270079
 21
13304.318271
 31
0.0
  0
LINE
  5
8DE
100
AcDbEntity
  8
LJIB
 62
     5
100
AcDbLine
 10
7441.040079
 20
13338.035271
 30
0.0
 11
7296.690079
 21
13231.624271
 31
0.0
  0
LINE
  5
8DF
100
AcDbEntity
  8
LJIB
 62
     5
100
AcDbLine
 10
5703.300079
 20
13099.294271
 30
0.0
 11
5809.950079
 21
13361.809271
 31
0.0
  0
LINE
  5
8E0
100
AcDbEntity
  8
LJIB
 62
     5
100
AcDbLine
 10
6353.000079
 20
13149.178271
 30
0.0
 11
6458.890079
 21
13369.281971
 31
0.0
  0
LINE
  5
8E1
100
AcDbEntity
  8
LJIB
 62
     5
100
AcDbLine
 10
6134.390079
 20
13365.582871
 30
0.0
 11
6233.750079
 21
13140.033271
 31
0.0
  0
LINE
  5
8E2
100
AcDbEntity
  8
LJIB
 62
     5
100
AcDbLine
 10
6783.490079
 20
13372.914571
 30
0.0
 11
6880.540079
 21
13189.678271
 31
0.0
  0
LINE
  5
8E3
100
AcDbEntity
  8
LJIB
 62
     5
100
AcDbLine
 10
7000.910079
 20
13198.920271
 30
0.0
 11
7081.060079
 21
13368.553371
 31
0.0
  0
LINE
  5
8E4
100
AcDbEntity
  8
LJIB
 62
     5
100
AcDbLine
 10
7296.680079
 20
13231.644271
 30
0.0
 11
7296.680079
 21
13221.646271
 31
0.0
  0
LINE
  5
8E5
100
AcDbEntity
  8
LJIB
 62
     5
100
AcDbLine
 10
8893.476079
 20
13386.398671
 30
0.0
 11
8829.975973
 21
13339.362639
 31
0.0
  0
ARC
  5
8E6
100
AcDbEntity
  8
LJIB
 62
     5
100
AcDbCircle
 10
9501.660079
 20
13391.047071
 30
0.0
 40
30.0
100
AcDbArc
 50
270.000001
 51
0.0
  0
ARC
  5
8E7
100
AcDbEntity
  8
LJIB
 62
     5
100
AcDbCircle
 10
9501.660079
 20
13391.047071
 30
0.0
 40
43.0
100
AcDbArc
 50
270.000001
 51
0.0
  0
LINE
  5
8E8
100
AcDbEntity
  8
LJIB
 62
     5
100
AcDbLine
 10
9501.661079
 20
13361.046871
 30
0.0
 11
9481.662079
 21
13361.046871
 31
0.0
  0
LINE
  5
8E9
100
AcDbEntity
  8
LJIB
 62
     5
100
AcDbLine
 10
9501.661079
 20
13348.047071
 30
0.0
 11
9481.662079
 21
13348.047071
 31
0.0
  0
LINE
  5
8EA
100
AcDbEntity
  8
LJIB
 62
     5
100
AcDbLine
 10
9486.661079
 20
13333.547871
 30
0.0
 11
9486.661079
 21
13288.548271
 31
0.0
  0
LINE
  5
8EB
100
AcDbEntity
  8
LJIB
 62
     5
100
AcDbLine
 10
9409.660079
 20
13268.543271
 30
0.0
 11
9453.660079
 21
13268.543271
 31
0.0
  0
LINE
  5
8EC
100
AcDbEntity
  8
LJIB
 62
     5
100
AcDbLine
 10
9406.660079
 20
13288.548271
 30
0.0
 11
9406.660079
 21
13279.739271
 31
0.0
  0
LINE
  5
8ED
100
AcDbEntity
  8
LJIB
 62
     5
100
AcDbLine
 10
9456.660079
 20
13288.548271
 30
0.0
 11
9456.660079
 21
13279.739271
 31
0.0
  0
LINE
  5
8EE
100
AcDbEntity
  8
LJIB
 62
     5
100
AcDbLine
 10
9453.662079
 20
13268.541271
 30
0.0
 11
9456.662079
 21
13279.738271
 31
0.0
  0
LINE
  5
8EF
100
AcDbEntity
  8
LJIB
 62
     5
100
AcDbLine
 10
9409.662079
 20
13268.541271
 30
0.0
 11
9406.662079
 21
13279.738271
 31
0.0
  0
LINE
  5
8F0
100
AcDbEntity
  8
LJIB
 62
     5
100
AcDbLine
 10
9476.673079
 20
13338.562971
 30
0.0
 11
9486.675079
 21
13333.562271
 31
0.0
  0
LINE
  5
8F1
100
AcDbEntity
  8
LJIB
 62
     5
100
AcDbLine
 10
9306.667565
 20
13288.540271
 30
0.0
 11
9166.668079
 21
13258.538271
 31
0.0
  0
LINE
  5
8F2
100
AcDbEntity
  8
LJIB
 62
     5
100
AcDbLine
 10
9356.661679
 20
13356.097271
 30
0.0
 11
9356.661679
 21
13343.548871
 31
0.0
  0
LINE
  5
8F3
100
AcDbEntity
  8
LJIB
 62
     5
100
AcDbLine
 10
9356.662379
 20
13343.547471
 30
0.0
 11
9361.662379
 21
13338.547571
 31
0.0
  0
LINE
  5
8F4
100
AcDbEntity
  8
LJIB
 62
     5
100
AcDbLine
 10
9166.666079
 20
13258.548271
 30
0.0
 11
9146.666079
 21
13258.548271
 31
0.0
  0
LINE
  5
8F5
100
AcDbEntity
  8
LJIB
 62
     5
100
AcDbLine
 10
9306.661544
 20
13338.548271
 30
0.0
 11
9481.662079
 21
13338.548271
 31
0.0
  0
LINE
  5
8F6
100
AcDbEntity
  8
LJIB
 62
     5
100
AcDbLine
 10
9306.661544
 20
13288.548271
 30
0.0
 11
9486.661079
 21
13288.548271
 31
0.0
  0
LINE
  5
8F7
100
AcDbEntity
  8
LJIB
 62
     5
100
AcDbLine
 10
7441.040079
 20
13499.019571
 30
0.0
 11
7296.700079
 21
13605.429271
 31
0.0
  0
LINE
  5
8F8
100
AcDbEntity
  8
LJIB
 62
     5
100
AcDbLine
 10
6482.580079
 20
13418.529941
 30
0.0
 11
6602.930079
 21
13668.696271
 31
0.0
  0
LINE
  5
8F9
100
AcDbEntity
  8
LJIB
 62
     5
100
AcDbLine
 10
6458.900079
 20
13467.773571
 30
0.0
 11
6557.240079
 21
13672.202271
 31
0.0
  0
LINE
  5
8FA
100
AcDbEntity
  8
LJIB
 62
     5
100
AcDbLine
 10
5979.790079
 20
13716.543271
 30
0.0
 11
6111.070079
 21
13418.538128
 31
0.0
  0
LINE
  5
8FB
100
AcDbEntity
  8
LJIB
 62
     5
100
AcDbLine
 10
6028.080079
 20
13712.840271
 30
0.0
 11
6134.400079
 21
13471.495071
 31
0.0
  0
LINE
  5
8FC
100
AcDbEntity
  8
LJIB
 62
     5
100
AcDbLine
 10
5833.000079
 20
13418.529211
 30
0.0
 11
5954.840079
 21
13718.451271
 31
0.0
  0
LINE
  5
8FD
100
AcDbEntity
  8
LJIB
 62
     5
100
AcDbLine
 10
5809.950079
 20
13475.248171
 30
0.0
 11
5910.150079
 21
13721.882271
 31
0.0
  0
LINE
  5
8FE
100
AcDbEntity
  8
LJIB
 62
     5
100
AcDbLine
 10
6678.220079
 20
13662.915271
 30
0.0
 11
6783.490079
 21
13464.144671
 31
0.0
  0
LINE
  5
8FF
100
AcDbEntity
  8
LJIB
 62
     5
100
AcDbLine
 10
6627.850079
 20
13666.783271
 30
0.0
 11
6759.330079
 21
13418.528471
 31
0.0
  0
LINE
  5
900
100
AcDbEntity
  8
LJIB
 62
     5
100
AcDbLine
 10
7104.680079
 20
13418.529236
 30
0.0
 11
7201.180079
 21
13622.765271
 31
0.0
  0
LINE
  5
901
100
AcDbEntity
  8
LJIB
 62
     5
100
AcDbLine
 10
7081.070079
 20
13468.502771
 30
0.0
 11
7155.610079
 21
13626.263271
 31
0.0
  0
LINE
  5
902
100
AcDbEntity
  8
LJIB
 62
     5
100
AcDbLine
 10
7296.680079
 20
13615.444271
 30
0.0
 11
7296.680079
 21
13605.444271
 31
0.0
  0
LINE
  5
903
100
AcDbEntity
  8
LJIB
 62
     5
100
AcDbLine
 10
7276.570079
 20
13616.980271
 30
0.0
 11
7358.430079
 21
13463.827271
 31
0.0
  0
LINE
  5
904
100
AcDbEntity
  8
LJIB
 62
     5
100
AcDbLine
 10
7226.090079
 20
13620.855271
 30
0.0
 11
7334.220079
 21
13418.53312
 31
0.0
  0
LINE
  5
905
100
AcDbEntity
  8
LJIB
 62
     5
100
AcDbLine
 10
7694.680079
 20
13805.008271
 30
0.0
 11
8593.382079
 21
14192.273271
 31
0.0
  0
LINE
  5
906
100
AcDbEntity
  8
LJIB
 62
     5
100
AcDbLine
 10
7753.990079
 20
13732.562271
 30
0.0
 11
8628.999079
 21
14109.620271
 31
0.0
  0
LINE
  5
907
100
AcDbEntity
  8
LJIB
 62
     5
100
AcDbLine
 10
7689.650079
 20
13802.615271
 30
0.0
 11
7532.140079
 21
13716.689271
 31
0.0
  0
LINE
  5
908
100
AcDbEntity
  8
LJIB
 62
     5
100
AcDbLine
 10
7532.130079
 20
13716.703271
 30
0.0
 11
7529.925768
 21
13687.7949
 31
0.0
  0
LINE
  5
909
100
AcDbEntity
  8
LJIB
 62
     5
100
AcDbLine
 10
7756.070079
 20
13759.682271
 30
0.0
 11
7749.255333
 21
13670.955798
 31
0.0
  0
ARC
  5
90A
100
AcDbEntity
  8
LJIB
 62
     5
100
AcDbCircle
 10
7711.190079
 20
13763.144271
 30
0.0
 40
45.0
100
AcDbArc
 50
355.60998
 51
118.351022
  0
CIRCLE
  5
90B
100
AcDbEntity
  8
LJIB
 62
     5
100
AcDbCircle
 10
7711.190079
 20
13763.138271
 30
0.0
 40
27.5
  0
LINE
  5
90C
100
AcDbEntity
  8
LJIB
 62
     5
100
AcDbLine
 10
8673.573473
 20
14060.081257
 30
0.0
 11
8824.805682
 21
13637.109064
 31
0.0
  0
LINE
  5
90D
100
AcDbEntity
  8
LJIB
 62
     5
100
AcDbLine
 10
8730.070567
 20
14080.281614
 30
0.0
 11
8884.491582
 21
13647.695671
 31
0.0
  0
LINE
  5
90E
100
AcDbEntity
  8
LJIB
 62
     5
100
AcDbLine
 10
8906.598079
 20
13592.130271
 30
0.0
 11
8905.832079
 21
13582.159271
 31
0.0
  0
LINE
  5
90F
100
AcDbEntity
  8
LJIB
 62
     5
100
AcDbLine
 10
8884.492079
 20
13647.693271
 30
0.0
 11
8896.625079
 21
13592.895271
 31
0.0
  0
LINE
  5
910
100
AcDbEntity
  8
LJIB
 62
     5
100
AcDbLine
 10
8825.313079
 20
13643.718271
 30
0.0
 11
8821.852079
 21
13598.636271
 31
0.0
  0
LINE
  5
911
100
AcDbEntity
  8
LJIB
 62
     5
100
AcDbLine
 10
8806.896079
 20
13599.784271
 30
0.0
 11
8806.130079
 21
13589.814271
 31
0.0
  0
ARC
  5
912
100
AcDbEntity
  8
LJIB
 62
     5
100
AcDbCircle
 10
8855.201079
 20
13641.210271
 30
0.0
 40
29.9999
100
AcDbArc
 50
12.484808
 51
175.200009
  0
LINE
  5
913
100
AcDbEntity
  8
LJIB
 62
     5
100
AcDbLine
 10
8893.479079
 20
13450.683471
 30
0.0
 11
8829.977139
 21
13497.720817
 31
0.0
  0
LINE
  5
914
100
AcDbEntity
  8
LJIB
 62
     5
100
AcDbLine
 10
8806.896079
 20
13599.784271
 30
0.0
 11
8906.603079
 21
13592.129271
 31
0.0
  0
LINE
  5
915
100
AcDbEntity
  8
LJIB
 62
     5
100
AcDbLine
 10
8634.934079
 20
14095.847271
 30
0.0
 11
8726.770079
 21
14135.421271
 31
0.0
  0
LINE
  5
916
100
AcDbEntity
  8
LJIB
 62
     5
100
AcDbLine
 10
8677.528079
 20
14249.694271
 30
0.0
 11
8728.750079
 21
14130.827271
 31
0.0
  0
LINE
  5
917
100
AcDbEntity
  8
LJIB
 62
     5
100
AcDbLine
 10
8723.222079
 20
14270.000271
 30
0.0
 11
8677.304079
 21
14250.214271
 31
0.0
  0
ARC
  5
918
100
AcDbEntity
  8
LJIB
 62
     5
100
AcDbCircle
 10
8701.822079
 20
14070.181271
 30
0.0
 40
29.9999
100
AcDbArc
 50
19.674683
 51
199.674015
  0
LINE
  5
919
100
AcDbEntity
  8
LJIB
 62
     5
100
AcDbLine
 10
8653.301079
 20
14103.762271
 30
0.0
 11
8681.003079
 21
14039.476271
 31
0.0
  0
LINE
  5
91A
100
AcDbEntity
  8
LJIB
 62
     5
100
AcDbLine
 10
8587.446079
 20
14206.048271
 30
0.0
 11
8679.283079
 21
14245.622271
 31
0.0
  0
LINE
  5
91B
100
AcDbEntity
  8
LJIB
 62
     5
100
AcDbLine
 10
8587.446079
 20
14206.048271
 30
0.0
 11
8634.934079
 21
14095.847271
 31
0.0
  0
LINE
  5
91C
100
AcDbEntity
  8
LJIB
 62
     5
100
AcDbLine
 10
8708.403079
 20
14127.506271
 30
0.0
 11
8724.787079
 21
14089.484271
 31
0.0
  0
LINE
  5
91D
100
AcDbEntity
  8
LJIB
 62
     5
100
AcDbLine
 10
8909.507079
 20
14355.718271
 30
0.0
 11
8937.058079
 21
14367.590271
 31
0.0
  0
LINE
  5
91E
100
AcDbEntity
  8
LJIB
 62
     5
100
AcDbLine
 10
9045.139079
 20
14365.729271
 30
0.0
 11
8937.058079
 21
14367.590271
 31
0.0
  0
ARC
  5
91F
100
AcDbEntity
  8
LJIB
 62
     5
100
AcDbCircle
 10
9044.657079
 20
14337.734271
 30
0.0
 40
28.0
100
AcDbArc
 50
317.609012
 51
89.013921
  0
LINE
  5
920
100
AcDbEntity
  8
LJIB
 62
     5
100
AcDbLine
 10
8992.460079
 20
14239.021271
 30
0.0
 11
8964.909079
 21
14227.149271
 31
0.0
  0
LINE
  5
921
100
AcDbEntity
  8
LJIB
 62
     5
100
AcDbLine
 10
8723.222079
 20
14270.000271
 30
0.0
 11
8774.668079
 21
14150.614271
 31
0.0
  0
LINE
  5
922
100
AcDbEntity
  8
LJIB
 62
     5
100
AcDbLine
 10
8728.750079
 20
14130.827271
 30
0.0
 11
8774.668079
 21
14150.614271
 31
0.0
  0
LINE
  5
923
100
AcDbEntity
  8
LJIB
  6
CENTER
 62
     5
100
AcDbLine
 10
8760.863079
 20
14160.999271
 30
0.0
 11
8965.148079
 21
14249.029271
 31
0.0
  0
LINE
  5
924
100
AcDbEntity
  8
LJIB
 62
     5
100
AcDbLine
 10
8964.909079
 20
14227.149271
 30
0.0
 11
8909.507079
 21
14355.718271
 31
0.0
  0
LINE
  5
925
100
AcDbEntity
  8
LJIB
  6
CENTER
 62
     5
100
AcDbLine
 10
8723.418079
 20
14253.752271
 30
0.0
 11
8925.283079
 21
14340.738271
 31
0.0
  0
LINE
  5
926
100
AcDbEntity
  8
LJIB
 62
     5
100
AcDbLine
 10
9065.337079
 20
14318.857271
 30
0.0
 11
8992.460079
 21
14239.021271
 31
0.0
  0
ARC
  5
927
100
AcDbEntity
  8
LJIB
 62
     5
100
AcDbCircle
 10
9501.660079
 20
13446.047171
 30
0.0
 40
30.0
100
AcDbArc
 50
0.0
 51
89.999981
  0
ARC
  5
928
100
AcDbEntity
  8
LJIB
 62
     5
100
AcDbCircle
 10
9501.660079
 20
13446.047171
 30
0.0
 40
43.0
100
AcDbArc
 50
0.0
 51
89.999981
  0
LINE
  5
929
100
AcDbEntity
  8
LJIB
 62
     5
100
AcDbLine
 10
9399.162179
 20
13592.541271
 30
0.0
 11
9400.162079
 21
13593.541271
 31
0.0
  0
LINE
  5
92A
100
AcDbEntity
  8
LJIB
 62
     5
100
AcDbLine
 10
9463.162079
 20
13593.541271
 30
0.0
 11
9464.162079
 21
13592.541271
 31
0.0
  0
LINE
  5
92B
100
AcDbEntity
  8
LJIB
 62
     5
100
AcDbLine
 10
9404.660279
 20
13608.542271
 30
0.0
 11
9458.660079
 21
13608.542271
 31
0.0
  0
LINE
  5
92C
100
AcDbEntity
  8
LJIB
 62
     5
100
AcDbLine
 10
9400.160279
 20
13593.542271
 30
0.0
 11
9463.160079
 21
13593.542271
 31
0.0
  0
LINE
  5
92D
100
AcDbEntity
  8
LJIB
 62
     5
100
AcDbLine
 10
9461.660079
 20
13605.542271
 30
0.0
 11
9461.660079
 21
13593.542271
 31
0.0
  0
LINE
  5
92E
100
AcDbEntity
  8
LJIB
 62
     5
100
AcDbLine
 10
9401.660579
 20
13605.542271
 30
0.0
 11
9401.660579
 21
13593.542271
 31
0.0
  0
LINE
  5
92F
100
AcDbEntity
  8
LJIB
 62
     5
100
AcDbLine
 10
9461.662079
 20
13605.541271
 30
0.0
 11
9458.662079
 21
13608.541271
 31
0.0
  0
LINE
  5
930
100
AcDbEntity
  8
LJIB
 62
     5
100
AcDbLine
 10
9401.661879
 20
13605.541271
 30
0.0
 11
9404.661779
 21
13608.541271
 31
0.0
  0
LINE
  5
931
100
AcDbEntity
  8
LJIB
 62
     5
100
AcDbLine
 10
9146.666079
 20
13578.542271
 30
0.0
 11
9166.666079
 21
13578.542271
 31
0.0
  0
LINE
  5
932
100
AcDbEntity
  8
LJIB
 62
     5
100
AcDbLine
 10
9501.661079
 20
13476.046271
 30
0.0
 11
9481.662079
 21
13476.046271
 31
0.0
  0
LINE
  5
933
100
AcDbEntity
  8
LJIB
 62
     5
100
AcDbLine
 10
9501.661079
 20
13489.046571
 30
0.0
 11
9481.662079
 21
13489.046571
 31
0.0
  0
LINE
  5
934
100
AcDbEntity
  8
LJIB
 62
     5
100
AcDbLine
 10
9486.661079
 20
13548.542271
 30
0.0
 11
9486.661079
 21
13503.542271
 31
0.0
  0
LINE
  5
935
100
AcDbEntity
  8
LJIB
 62
     5
100
AcDbLine
 10
9486.675079
 20
13503.530871
 30
0.0
 11
9476.673079
 21
13498.530171
 31
0.0
  0
LINE
  5
936
100
AcDbEntity
  8
LJIB
 62
     5
100
AcDbLine
 10
9356.661679
 20
13493.542171
 30
0.0
 11
9356.661679
 21
13480.996671
 31
0.0
  0
LINE
  5
937
100
AcDbEntity
  8
LJIB
 62
     5
100
AcDbLine
 10
9356.662179
 20
13493.541271
 30
0.0
 11
9361.662179
 21
13498.541171
 31
0.0
  0
LINE
  5
938
100
AcDbEntity
  8
LJIB
 62
     5
100
AcDbLine
 10
9306.661544
 20
13498.542371
 30
0.0
 11
9481.661079
 21
13498.542371
 31
0.0
  0
LINE
  5
939
100
AcDbEntity
  8
LJIB
 62
     5
100
AcDbLine
 10
9306.661544
 20
13548.542271
 30
0.0
 11
9486.661079
 21
13548.542271
 31
0.0
  0
LINE
  5
93A
100
AcDbEntity
  8
LJIB
 62
     5
100
AcDbLine
 10
9399.161579
 20
13592.541271
 30
0.0
 11
9399.161579
 21
13548.542271
 31
0.0
  0
LINE
  5
93B
100
AcDbEntity
  8
LJIB
 62
     5
100
AcDbLine
 10
9464.161079
 20
13592.541271
 30
0.0
 11
9464.161079
 21
13548.542271
 31
0.0
  0
LINE
  5
93C
100
AcDbEntity
  8
LJIB
 62
     5
100
AcDbLine
 10
9166.662079
 20
13578.539271
 30
0.0
 11
9306.662486
 21
13548.536271
 31
0.0
  0
LINE
  5
AE2
100
AcDbEntity
  8
0
  6
CONTINUOUS
 62
     7
100
AcDbLine
 10
24305.276313
 20
3064.270598
 30
0.0
 11
24485.756313
 21
3064.270598
 31
0.0
  0
LINE
  5
AE3
100
AcDbEntity
  8
0
  6
CONTINUOUS
 62
     7
100
AcDbLine
 10
24299.836313
 20
3542.670598
 30
0.0
 11
24491.196313
 21
3542.670598
 31
0.0
  0
TEXT
  5
AE4
100
AcDbEntity
  8
点
 62
     7
100
AcDbText
 10
21506.045909
 20
4052.359337
 30
0.0
 40
320.0
  1
ALL RIGHTS RESERVED,COPYRIGHT(C) TADANOSYSTEMS INC.
100
AcDbText
  0
LINE
  5
AE5
100
AcDbEntity
  8
0
  6
CONTINUOUS
 62
     7
100
AcDbLine
 10
22675.516313
 20
2982.670598
 30
0.0
 11
22675.516313
 21
2422.670598
 31
0.0
  0
LINE
  5
AE6
100
AcDbEntity
  8
0
  6
CONTINUOUS
 62
     7
100
AcDbLine
 10
21835.516313
 20
2422.670598
 30
0.0
 11
22675.516313
 21
3542.670598
 31
0.0
  0
LINE
  5
AE7
100
AcDbEntity
  8
0
  6
CONTINUOUS
 62
     7
100
AcDbLine
 10
21555.516313
 20
3542.670598
 30
0.0
 11
21555.516313
 21
2702.670598
 31
0.0
  0
LINE
  5
AE8
100
AcDbEntity
  8
0
  6
CONTINUOUS
 62
     7
100
AcDbLine
 10
21555.516313
 20
2702.670598
 30
0.0
 11
22647.516313
 21
3542.670598
 31
0.0
  0
LINE
  5
AE9
100
AcDbEntity
  8
0
  6
CONTINUOUS
 62
     7
100
AcDbLine
 10
21835.516313
 20
2422.670598
 30
0.0
 11
22675.516313
 21
2422.670598
 31
0.0
  0
LINE
  5
AEA
100
AcDbEntity
  8
0
  6
CONTINUOUS
 62
     7
100
AcDbLine
 10
22675.516313
 20
3542.670598
 30
0.0
 11
23123.516313
 21
3542.670598
 31
0.0
  0
LINE
  5
AEB
100
AcDbEntity
  8
0
  6
CONTINUOUS
 62
     7
100
AcDbLine
 10
22675.516313
 20
2982.670598
 30
0.0
 11
23123.516313
 21
2982.670598
 31
0.0
  0
LINE
  5
AEC
100
AcDbEntity
  8
0
  6
CONTINUOUS
 62
     7
100
AcDbLine
 10
21555.516313
 20
3542.670598
 30
0.0
 11
22647.516313
 21
3542.670598
 31
0.0
  0
LINE
  5
AED
100
AcDbEntity
  8
0
  6
CONTINUOUS
 62
     7
100
AcDbLine
 10
23123.516313
 20
3542.670598
 30
0.0
 11
23123.516313
 21
2982.670598
 31
0.0
  0
LINE
  5
AEE
100
AcDbEntity
  8
0
  6
CONTINUOUS
 62
     7
100
AcDbLine
 10
24407.436313
 20
3318.190598
 30
0.0
 11
24449.196313
 21
3182.430598
 31
0.0
  0
LINE
  5
AEF
100
AcDbEntity
  8
0
  6
CONTINUOUS
 62
     7
100
AcDbLine
 10
24383.596313
 20
3318.190598
 30
0.0
 11
24341.676313
 21
3182.430598
 31
0.0
  0
LINE
  5
AF0
100
AcDbEntity
  8
0
  6
CONTINUOUS
 62
     7
100
AcDbLine
 10
24341.676313
 20
3182.430598
 30
0.0
 11
24449.196313
 21
3182.430598
 31
0.0
  0
ARC
  5
AF1
100
AcDbEntity
  8
0
  6
CONTINUOUS
 62
     7
100
AcDbCircle
 10
24688.156313
 20
3404.750598
 30
0.0
 40
293.7896
100
AcDbArc
 50
188.261
 51
197.133
  0
ARC
  5
AF2
100
AcDbEntity
  8
0
  6
CONTINUOUS
 62
     7
100
AcDbCircle
 10
24102.796313
 20
3404.750598
 30
0.0
 40
293.7904
100
AcDbArc
 50
342.867
 51
351.73902
  0
LINE
  5
AF3
100
AcDbEntity
  8
0
  6
CONTINUOUS
 62
     7
100
AcDbLine
 10
24393.596313
 20
3362.590598
 30
0.0
 11
24397.516313
 21
3362.590598
 31
0.0
  0
LINE
  5
AF4
100
AcDbEntity
  8
0
  6
CONTINUOUS
 62
     7
100
AcDbLine
 10
24173.116313
 20
3542.670598
 30
0.0
 11
24173.116313
 21
3390.670598
 31
0.0
  0
LINE
  5
AF5
100
AcDbEntity
  8
0
  6
CONTINUOUS
 62
     7
100
AcDbLine
 10
24305.276313
 20
3064.270598
 30
0.0
 11
24280.076313
 21
2982.670598
 31
0.0
  0
LINE
  5
AF6
100
AcDbEntity
  8
0
  6
CONTINUOUS
 62
     7
100
AcDbLine
 10
23683.516313
 20
3390.670598
 30
0.0
 11
23839.756313
 21
3390.670598
 31
0.0
  0
LINE
  5
AF7
100
AcDbEntity
  8
0
  6
CONTINUOUS
 62
     7
100
AcDbLine
 10
23683.516313
 20
3542.670598
 30
0.0
 11
23683.516313
 21
3390.670598
 31
0.0
  0
LINE
  5
AF8
100
AcDbEntity
  8
0
  6
CONTINUOUS
 62
     7
100
AcDbLine
 10
23839.756313
 20
2982.670598
 30
0.0
 11
24017.036313
 21
2982.670598
 31
0.0
  0
LINE
  5
AF9
100
AcDbEntity
  8
0
  6
CONTINUOUS
 62
     7
100
AcDbLine
 10
23839.756313
 20
3390.670598
 30
0.0
 11
23839.756313
 21
2982.670598
 31
0.0
  0
LINE
  5
AFA
100
AcDbEntity
  8
0
  6
CONTINUOUS
 62
     7
100
AcDbLine
 10
24017.036313
 20
3390.670598
 30
0.0
 11
24017.036313
 21
2982.670598
 31
0.0
  0
LINE
  5
AFB
100
AcDbEntity
  8
0
  6
CONTINUOUS
 62
     7
100
AcDbLine
 10
24017.036313
 20
3390.670598
 30
0.0
 11
24173.116313
 21
3390.670598
 31
0.0
  0
LINE
  5
AFC
100
AcDbEntity
  8
0
  6
CONTINUOUS
 62
     7
100
AcDbLine
 10
23683.516313
 20
3542.670598
 30
0.0
 11
24173.116313
 21
3542.670598
 31
0.0
  0
LINE
  5
AFD
100
AcDbEntity
  8
0
  6
CONTINUOUS
 62
     7
100
AcDbLine
 10
24097.196313
 20
2982.670598
 30
0.0
 11
24280.076313
 21
2982.670598
 31
0.0
  0
LINE
  5
AFE
100
AcDbEntity
  8
0
  6
CONTINUOUS
 62
     7
100
AcDbLine
 10
24299.836313
 20
3542.670598
 30
0.0
 11
24097.196313
 21
2982.670598
 31
0.0
  0
LINE
  5
AFF
100
AcDbEntity
  8
0
  6
CONTINUOUS
 62
     7
100
AcDbLine
 10
26020.396313
 20
3250.990598
 30
0.0
 11
26185.356313
 21
2982.670598
 31
0.0
  0
LINE
  5
B00
100
AcDbEntity
  8
0
  6
CONTINUOUS
 62
     7
100
AcDbLine
 10
26002.476313
 20
3542.670598
 30
0.0
 11
26167.436313
 21
3274.270598
 31
0.0
  0
LINE
  5
B01
100
AcDbEntity
  8
0
  6
CONTINUOUS
 62
     7
100
AcDbLine
 10
25210.236313
 20
2982.670598
 30
0.0
 11
25393.196313
 21
2982.670598
 31
0.0
  0
LINE
  5
B02
100
AcDbEntity
  8
0
  6
CONTINUOUS
 62
     7
100
AcDbLine
 10
25210.236313
 20
2982.670598
 30
0.0
 11
25412.876313
 21
3542.670598
 31
0.0
  0
ARC
  5
B03
100
AcDbEntity
  8
0
  6
CONTINUOUS
 62
     7
100
AcDbCircle
 10
24855.596313
 20
3262.670598
 30
0.0
 40
213.884
100
AcDbArc
 50
340.276
 51
22.213
  0
LINE
  5
B04
100
AcDbEntity
  8
0
  6
CONTINUOUS
 62
     7
100
AcDbLine
 10
24889.356313
 20
3404.750598
 30
0.0
 11
24889.356313
 21
3123.310598
 31
0.0
  0
ARC
  5
B05
100
AcDbEntity
  8
0
  6
CONTINUOUS
 62
     7
100
AcDbCircle
 10
24866.876313
 20
3262.670598
 30
0.0
 40
368.668
100
AcDbArc
 50
341.626
 51
23.9327
  0
LINE
  5
B06
100
AcDbEntity
  8
0
  6
CONTINUOUS
 62
     7
100
AcDbLine
 10
24889.356313
 20
3123.310598
 30
0.0
 11
24961.596313
 21
3123.310598
 31
0.0
  0
ARC
  5
B07
100
AcDbEntity
  8
0
  6
CONTINUOUS
 62
     7
100
AcDbCircle
 10
24961.596313
 20
3224.670598
 30
0.0
 40
101.3144
100
AcDbArc
 50
270.0
 51
340.276
  0
ARC
  5
B08
100
AcDbEntity
  8
0
  6
CONTINUOUS
 62
     7
100
AcDbCircle
 10
24962.396313
 20
3306.190598
 30
0.0
 40
98.4984
100
AcDbArc
 50
22.2133
 51
90.0
  0
LINE
  5
B09
100
AcDbEntity
  8
0
  6
CONTINUOUS
 62
     7
100
AcDbLine
 10
24889.356313
 20
3404.750598
 30
0.0
 11
24962.396313
 21
3404.750598
 31
0.0
  0
ARC
  5
B0A
100
AcDbEntity
  8
0
  6
CONTINUOUS
 62
     7
100
AcDbCircle
 10
25003.196313
 20
3323.150598
 30
0.0
 40
219.5136
100
AcDbArc
 50
23.9328
 51
90.0
  0
LINE
  5
B0B
100
AcDbEntity
  8
0
  6
CONTINUOUS
 62
     7
100
AcDbLine
 10
24510.796313
 20
2982.670598
 30
0.0
 11
24693.836313
 21
2982.670598
 31
0.0
  0
LINE
  5
B0C
100
AcDbEntity
  8
0
  6
CONTINUOUS
 62
     7
100
AcDbLine
 10
24491.196313
 20
3542.670598
 30
0.0
 11
24693.836313
 21
2982.670598
 31
0.0
  0
LINE
  5
B0D
100
AcDbEntity
  8
0
  6
CONTINUOUS
 62
     7
100
AcDbLine
 10
24485.756313
 20
3064.270598
 30
0.0
 11
24510.796313
 21
2982.670598
 31
0.0
  0
LINE
  5
B0E
100
AcDbEntity
  8
0
  6
CONTINUOUS
 62
     7
100
AcDbLine
 10
24723.436313
 20
3542.670598
 30
0.0
 11
24723.436313
 21
2982.670598
 31
0.0
  0
LINE
  5
B0F
100
AcDbEntity
  8
0
  6
CONTINUOUS
 62
     7
100
AcDbLine
 10
24723.436313
 20
3542.670598
 30
0.0
 11
25003.196313
 21
3542.670598
 31
0.0
  0
LINE
  5
B10
100
AcDbEntity
  8
0
  6
CONTINUOUS
 62
     7
100
AcDbLine
 10
24723.436313
 20
2982.670598
 30
0.0
 11
24989.756313
 21
2982.670598
 31
0.0
  0
ARC
  5
B11
100
AcDbEntity
  8
0
  6
CONTINUOUS
 62
     7
100
AcDbCircle
 10
24989.756313
 20
3221.870598
 30
0.0
 40
239.212
100
AcDbArc
 50
270.0
 51
341.626
  0
LINE
  5
B12
100
AcDbEntity
  8
0
  6
CONTINUOUS
 62
     7
100
AcDbLine
 10
25836.316313
 20
3542.670598
 30
0.0
 11
26002.476313
 21
3542.670598
 31
0.0
  0
LINE
  5
B13
100
AcDbEntity
  8
0
  6
CONTINUOUS
 62
     7
100
AcDbLine
 10
25836.316313
 20
2982.670598
 30
0.0
 11
25996.876313
 21
2982.670598
 31
0.0
  0
LINE
  5
B14
100
AcDbEntity
  8
0
  6
CONTINUOUS
 62
     7
100
AcDbLine
 10
25496.636313
 20
3318.190598
 30
0.0
 11
25454.796313
 21
3182.430598
 31
0.0
  0
LINE
  5
B15
100
AcDbEntity
  8
0
  6
CONTINUOUS
 62
     7
100
AcDbLine
 10
25520.476313
 20
3318.190598
 30
0.0
 11
25562.316313
 21
3182.430598
 31
0.0
  0
LINE
  5
B16
100
AcDbEntity
  8
0
  6
CONTINUOUS
 62
     7
100
AcDbLine
 10
25454.796313
 20
3182.430598
 30
0.0
 11
25562.316313
 21
3182.430598
 31
0.0
  0
ARC
  5
B17
100
AcDbEntity
  8
0
  6
CONTINUOUS
 62
     7
100
AcDbCircle
 10
25215.836313
 20
3404.750598
 30
0.0
 40
293.7904
100
AcDbArc
 50
342.867
 51
351.73902
  0
ARC
  5
B18
100
AcDbEntity
  8
0
  6
CONTINUOUS
 62
     7
100
AcDbCircle
 10
25801.196313
 20
3404.750598
 30
0.0
 40
293.7896
100
AcDbArc
 50
188.261
 51
197.133
  0
LINE
  5
B19
100
AcDbEntity
  8
0
  6
CONTINUOUS
 62
     7
100
AcDbLine
 10
25506.636313
 20
3362.590598
 30
0.0
 11
25510.396313
 21
3362.590598
 31
0.0
  0
LINE
  5
B1A
100
AcDbEntity
  8
0
  6
CONTINUOUS
 62
     7
100
AcDbLine
 10
25623.916313
 20
2982.670598
 30
0.0
 11
25806.876313
 21
2982.670598
 31
0.0
  0
LINE
  5
B1B
100
AcDbEntity
  8
0
  6
CONTINUOUS
 62
     7
100
AcDbLine
 10
25604.156313
 20
3542.670598
 30
0.0
 11
25806.876313
 21
2982.670598
 31
0.0
  0
LINE
  5
B1C
100
AcDbEntity
  8
0
  6
CONTINUOUS
 62
     7
100
AcDbLine
 10
25836.316313
 20
3542.670598
 30
0.0
 11
25836.316313
 21
2982.670598
 31
0.0
  0
LINE
  5
B1D
100
AcDbEntity
  8
0
  6
CONTINUOUS
 62
     7
100
AcDbLine
 10
25598.796313
 20
3064.270598
 30
0.0
 11
25623.916313
 21
2982.670598
 31
0.0
  0
ARC
  5
B1E
100
AcDbEntity
  8
0
  6
CONTINUOUS
 62
     7
100
AcDbCircle
 10
25636.556313
 20
3250.030598
 30
0.0
 40
360.2264
100
AcDbArc
 50
0.0
 51
6.7299
  0
ARC
  5
B1F
100
AcDbEntity
  8
0
  6
CONTINUOUS
 62
     7
100
AcDbCircle
 10
26494.876313
 20
3542.670598
 30
0.0
 40
557.0016
100
AcDbArc
 50
206.723
 51
211.578
  0
LINE
  5
B20
100
AcDbEntity
  8
0
  6
CONTINUOUS
 62
     7
100
AcDbLine
 10
25994.236313
 20
3292.190598
 30
0.0
 11
25997.436313
 21
3292.190598
 31
0.0
  0
LINE
  5
B21
100
AcDbEntity
  8
0
  6
CONTINUOUS
 62
     7
100
AcDbLine
 10
25996.876313
 20
3250.030598
 30
0.0
 11
25996.876313
 21
2982.670598
 31
0.0
  0
LINE
  5
B22
100
AcDbEntity
  8
0
  6
CONTINUOUS
 62
     7
100
AcDbLine
 10
25418.236313
 20
3064.270598
 30
0.0
 11
25393.196313
 21
2982.670598
 31
0.0
  0
LINE
  5
B23
100
AcDbEntity
  8
0
  6
CONTINUOUS
 62
     7
100
AcDbLine
 10
25418.236313
 20
3064.270598
 30
0.0
 11
25598.796313
 21
3064.270598
 31
0.0
  0
LINE
  5
B24
100
AcDbEntity
  8
0
  6
CONTINUOUS
 62
     7
100
AcDbLine
 10
25412.876313
 20
3542.670598
 30
0.0
 11
25604.156313
 21
3542.670598
 31
0.0
  0
ARC
  5
B25
100
AcDbEntity
  8
0
  6
CONTINUOUS
 62
     7
100
AcDbCircle
 10
26649.676313
 20
3262.670598
 30
0.0
 40
337.7128
100
AcDbArc
 50
332.938
 51
27.062
  0
ARC
  5
B26
100
AcDbEntity
  8
0
  6
CONTINUOUS
 62
     7
100
AcDbCircle
 10
26524.476313
 20
3262.670598
 30
0.0
 40
284.24
100
AcDbArc
 50
345.311
 51
14.6886
  0
ARC
  5
B27
100
AcDbEntity
  8
0
  6
CONTINUOUS
 62
     7
100
AcDbCircle
 10
26729.916313
 20
3303.630598
 30
0.0
 40
247.6552
100
AcDbArc
 50
27.0618
 51
72.7366
  0
ARC
  5
B28
100
AcDbEntity
  8
0
  6
CONTINUOUS
 62
     7
100
AcDbCircle
 10
26729.916313
 20
3221.630598
 30
0.0
 40
247.6568
100
AcDbArc
 50
287.263
 51
332.938
  0
ARC
  5
B29
100
AcDbEntity
  8
0
  6
CONTINUOUS
 62
     7
100
AcDbCircle
 10
26676.476313
 20
3303.630598
 30
0.0
 40
247.6568
100
AcDbArc
 50
107.346
 51
153.043
  0
ARC
  5
B2A
100
AcDbEntity
  8
0
  6
CONTINUOUS
 62
     7
100
AcDbCircle
 10
26676.476313
 20
3221.630598
 30
0.0
 40
247.6544
100
AcDbArc
 50
206.967
 51
252.685
  0
ARC
  5
B2B
100
AcDbEntity
  8
0
  6
CONTINUOUS
 62
     7
100
AcDbCircle
 10
26756.636313
 20
3262.670598
 30
0.0
 40
337.7128
100
AcDbArc
 50
152.861
 51
207.131
  0
LINE
  5
B2C
100
AcDbEntity
  8
0
  6
CONTINUOUS
 62
     7
100
AcDbLine
 10
26190.956313
 20
3542.670598
 30
0.0
 11
26351.436313
 21
3542.670598
 31
0.0
  0
ARC
  5
B2D
100
AcDbEntity
  8
0
  6
CONTINUOUS
 62
     7
100
AcDbCircle
 10
26551.276313
 20
3275.310598
 30
0.0
 40
360.2264
100
AcDbArc
 50
180.0
 51
186.73
  0
LINE
  5
B2E
100
AcDbEntity
  8
0
  6
CONTINUOUS
 62
     7
100
AcDbLine
 10
26190.396313
 20
3233.070598
 30
0.0
 11
26193.516313
 21
3233.070598
 31
0.0
  0
LINE
  5
B2F
100
AcDbEntity
  8
0
  6
CONTINUOUS
 62
     7
100
AcDbLine
 10
26190.956313
 20
3542.670598
 30
0.0
 11
26190.956313
 21
3275.310598
 31
0.0
  0
ARC
  5
B30
100
AcDbEntity
  8
0
  6
CONTINUOUS
 62
     7
100
AcDbCircle
 10
25692.876313
 20
2982.670598
 30
0.0
 40
556.9992
100
AcDbArc
 50
26.7228
 51
31.5781
  0
LINE
  5
B31
100
AcDbEntity
  8
0
  6
CONTINUOUS
 62
     7
100
AcDbLine
 10
26185.356313
 20
2982.670598
 30
0.0
 11
26351.436313
 21
2982.670598
 31
0.0
  0
LINE
  5
B32
100
AcDbEntity
  8
0
  6
CONTINUOUS
 62
     7
100
AcDbLine
 10
26351.436313
 20
3542.670598
 30
0.0
 11
26351.436313
 21
2982.670598
 31
0.0
  0
ARC
  5
B33
100
AcDbEntity
  8
0
  6
CONTINUOUS
 62
     7
100
AcDbCircle
 10
26881.836313
 20
3262.670598
 30
0.0
 40
284.24
100
AcDbArc
 50
165.132
 51
194.869
  0
ARC
  5
B34
100
AcDbEntity
  8
0
  6
CONTINUOUS
 62
     7
100
AcDbCircle
 10
26703.196313
 20
3215.870598
 30
0.0
 40
99.4984
100
AcDbArc
 50
195.203
 51
345.311
  0
ARC
  5
B35
100
AcDbEntity
  8
0
  6
CONTINUOUS
 62
     7
100
AcDbCircle
 10
26703.196313
 20
3309.470598
 30
0.0
 40
99.4976
100
AcDbArc
 50
14.6894
 51
164.799
  0
ARC
  5
B36
100
AcDbEntity
  8
0
  6
CONTINUOUS
 62
     7
100
AcDbCircle
 10
26703.196313
 20
3217.630598
 30
0.0
 40
337.7128
100
AcDbArc
 50
72.7367
 51
107.323
  0
ARC
  5
B37
100
AcDbEntity
  8
0
  6
CONTINUOUS
 62
     7
100
AcDbCircle
 10
26703.196313
 20
3307.630598
 30
0.0
 40
337.7128
100
AcDbArc
 50
252.699
 51
287.263
  0
ENDSEC
  0
SECTION
  2
OBJECTS
  0
DICTIONARY
  5
C22
100
AcDbDictionary
  3
ACAD_GROUP
350
C23
  3
ACAD_MLINESTYLE
350
C30
  3
ACDBVARIABLEDICTIONARY
350
C43
  0
DICTIONARY
  5
C23
102
{ACAD_REACTORS
330
C22
102
}
100
AcDbDictionary
  0
DICTIONARY
  5
C30
102
{ACAD_REACTORS
330
C22
102
}
100
AcDbDictionary
  3
STANDARD
350
C31
  0
DICTIONARY
  5
C43
102
{ACAD_REACTORS
330
C22
102
}
100
AcDbDictionary
  3
DIMADEC
350
C44
  0
MLINESTYLE
  5
C31
102
{ACAD_REACTORS
330
C30
102
}
100
AcDbMlineStyle
  2
STANDARD
 70
     0
  3

 62
   256
 51
90.0
 52
90.0
 71
     2
 49
0.5
 62
   256
  6
BYLAYER
 49
-0.5
 62
   256
  6
BYLAYER
  0
DICTIONARYVAR
  5
C44
102
{ACAD_REACTORS
330
C43
102
}
100
DictionaryVariables
280
     0
  1
1
  0
ENDSEC
  0
EOF
