  0
SECTION
  2
HEADER
  9
$ACADVER
  1
AC1012
  9
$DWGCODEPAGE
  3
dos932
  9
$INSBASE
 10
0.0
 20
0.0
 30
0.0
  9
$EXTMIN
 10
11128.655751
 20
13546.692707
 30
0.0
  9
$EXTMAX
 10
43288.053393
 20
33773.29743
 30
0.0
  9
$LIMMIN
 10
0.0
 20
0.0
  9
$LIMMAX
 10
50000.0
 20
30000.0
  9
$ORTHOMODE
 70
     0
  9
$REGENMODE
 70
     1
  9
$FILLMODE
 70
     1
  9
$QTEXTMODE
 70
     0
  9
$MIRRTEXT
 70
     0
  9
$DRAGMODE
 70
     2
  9
$LTSCALE
 40
100.0
  9
$OSMODE
 70
     8
  9
$ATTMODE
 70
     1
  9
$TEXTSIZE
 40
700.0
  9
$TRACEWID
 40
0.05
  9
$TEXTSTYLE
  7
STANDARD
  9
$CLAYER
  8
0
  9
$CELTYPE
  6
BYLAYER
  9
$CECOLOR
 62
   256
  9
$CELTSCALE
 40
1.0
  9
$DELOBJ
 70
     1
  9
$DISPSILH
 70
     0
  9
$DIMSCALE
 40
1.0
  9
$DIMASZ
 40
100.0
  9
$DIMEXO
 40
100.0
  9
$DIMDLI
 40
100.0
  9
$DIMRND
 40
1.0
  9
$DIMDLE
 40
0.0
  9
$DIMEXE
 40
100.0
  9
$DIMTP
 40
0.0
  9
$DIMTM
 40
0.0
  9
$DIMTXT
 40
200.0
  9
$DIMCEN
 40
0.0
  9
$DIMTSZ
 40
0.0
  9
$DIMTOL
 70
     0
  9
$DIMLIM
 70
     0
  9
$DIMTIH
 70
     0
  9
$DIMTOH
 70
     0
  9
$DIMSE1
 70
     0
  9
$DIMSE2
 70
     0
  9
$DIMTAD
 70
     1
  9
$DIMZIN
 70
     8
  9
$DIMBLK
  1

  9
$DIMASO
 70
     1
  9
$DIMSHO
 70
     1
  9
$DIMPOST
  1

  9
$DIMAPOST
  1

  9
$DIMALT
 70
     0
  9
$DIMALTD
 70
     2
  9
$DIMALTF
 40
25.4
  9
$DIMLFAC
 40
1.0
  9
$DIMTOFL
 70
     0
  9
$DIMTVP
 40
0.0
  9
$DIMTIX
 70
     0
  9
$DIMSOXD
 70
     0
  9
$DIMSAH
 70
     0
  9
$DIMBLK1
  1

  9
$DIMBLK2
  1

  9
$DIMSTYLE
  2
CADLOG
  9
$DIMCLRD
 70
     0
  9
$DIMCLRE
 70
     0
  9
$DIMCLRT
 70
     0
  9
$DIMTFAC
 40
1.0
  9
$DIMGAP
 40
0.0
  9
$DIMJUST
 70
     0
  9
$DIMSD1
 70
     0
  9
$DIMSD2
 70
     0
  9
$DIMTOLJ
 70
     1
  9
$DIMTZIN
 70
     8
  9
$DIMALTZ
 70
     8
  9
$DIMALTTZ
 70
     8
  9
$DIMFIT
 70
     5
  9
$DIMUPT
 70
     0
  9
$DIMUNIT
 70
     2
  9
$DIMDEC
 70
     2
  9
$DIMTDEC
 70
     2
  9
$DIMALTU
 70
     2
  9
$DIMALTTD
 70
     2
  9
$DIMTXSTY
  7
EXTFONT
  9
$DIMAUNIT
 70
     0
  9
$LUNITS
 70
     2
  9
$LUPREC
 70
     2
  9
$SKETCHINC
 40
0.1
  9
$FILLETRAD
 40
0.0
  9
$AUNITS
 70
     0
  9
$AUPREC
 70
     1
  9
$MENU
  1
CADLOG
  9
$ELEVATION
 40
0.0
  9
$PELEVATION
 40
0.0
  9
$THICKNESS
 40
0.0
  9
$LIMCHECK
 70
     0
  9
$BLIPMODE
 70
     1
  9
$CHAMFERA
 40
0.0
  9
$CHAMFERB
 40
0.0
  9
$CHAMFERC
 40
0.0
  9
$CHAMFERD
 40
0.0
  9
$SKPOLY
 70
     0
  9
$TDCREATE
 40
2451816.663133102
  9
$TDUPDATE
 40
2451816.663133102
  9
$TDINDWG
 40
0.0000000000
  9
$TDUSRTIMER
 40
0.0000000000
  9
$USRTIMER
 70
     1
  9
$ANGBASE
 50
0.0
  9
$ANGDIR
 70
     0
  9
$PDMODE
 70
    35
  9
$PDSIZE
 40
-3.0
  9
$PLINEWID
 40
0.0
  9
$COORDS
 70
     1
  9
$SPLFRAME
 70
     0
  9
$SPLINETYPE
 70
     6
  9
$SPLINESEGS
 70
     8
  9
$ATTDIA
 70
     0
  9
$ATTREQ
 70
     1
  9
$HANDLING
 70
     1
  9
$HANDSEED
  5
891
  9
$SURFTAB1
 70
     6
  9
$SURFTAB2
 70
     6
  9
$SURFTYPE
 70
     6
  9
$SURFU
 70
     6
  9
$SURFV
 70
     6
  9
$UCSNAME
  2

  9
$UCSORG
 10
0.0
 20
0.0
 30
0.0
  9
$UCSXDIR
 10
1.0
 20
0.0
 30
0.0
  9
$UCSYDIR
 10
0.0
 20
1.0
 30
0.0
  9
$PUCSNAME
  2

  9
$PUCSORG
 10
0.0
 20
0.0
 30
0.0
  9
$PUCSXDIR
 10
1.0
 20
0.0
 30
0.0
  9
$PUCSYDIR
 10
0.0
 20
1.0
 30
0.0
  9
$USERI1
 70
     0
  9
$USERI2
 70
     0
  9
$USERI3
 70
     0
  9
$USERI4
 70
     0
  9
$USERI5
 70
     0
  9
$USERR1
 40
0.0
  9
$USERR2
 40
0.0
  9
$USERR3
 40
0.0
  9
$USERR4
 40
0.0
  9
$USERR5
 40
0.0
  9
$WORLDVIEW
 70
     1
  9
$SHADEDGE
 70
     3
  9
$SHADEDIF
 70
    70
  9
$TILEMODE
 70
     1
  9
$MAXACTVP
 70
    16
  9
$PINSBASE
 10
0.0
 20
0.0
 30
0.0
  9
$PLIMCHECK
 70
     0
  9
$PEXTMIN
 10
1.000000E+20
 20
1.000000E+20
 30
1.000000E+20
  9
$PEXTMAX
 10
-1.000000E+20
 20
-1.000000E+20
 30
-1.000000E+20
  9
$PLIMMIN
 10
0.0
 20
0.0
  9
$PLIMMAX
 10
12.0
 20
9.0
  9
$UNITMODE
 70
     0
  9
$VISRETAIN
 70
     0
  9
$PLINEGEN
 70
     0
  9
$PSLTSCALE
 70
     1
  9
$TREEDEPTH
 70
  3020
  9
$PICKSTYLE
 70
     1
  9
$CMLSTYLE
  2
STANDARD
  9
$CMLJUST
 70
     0
  9
$CMLSCALE
 40
1.0
  9
$SAVEIMAGES
 70
     1
  0
ENDSEC
  0
SECTION
  2
CLASSES
  0
CLASS
  1
DICTIONARYVAR
  2
AcDbDictionaryVar
  3
"AutoCAD"
 90
    32768
280
     0
281
     0
  0
ENDSEC
  0
SECTION
  2
TABLES
  0
TABLE
  2
VPORT
  5
863
100
AcDbSymbolTable
 70
     2
  0
VPORT
  5
890
100
AcDbSymbolTableRecord
100
AcDbViewportTableRecord
  2
*ACTIVE
 70
     0
 10
0.0
 20
0.0
 11
1.0
 21
1.0
 12
27050.399899
 22
23659.499776
 13
0.0
 23
0.0
 14
500.0
 24
500.0
 15
0.0
 25
0.0
 16
0.0
 26
0.0
 36
1.0
 17
0.0
 27
0.0
 37
0.0
 40
20460.852901
 41
1.765267
 42
50.0
 43
0.0
 44
0.0
 50
0.0
 51
0.0
 71
     0
 72
   100
 73
     1
 74
     1
 75
     0
 76
     0
 77
     0
 78
     0
  0
ENDTAB
  0
TABLE
  2
LTYPE
  5
860
100
AcDbSymbolTable
 70
     1
  0
LTYPE
  5
86C
100
AcDbSymbolTableRecord
100
AcDbLinetypeTableRecord
  2
BYBLOCK
 70
     0
  3

 72
    65
 73
     0
 40
0.0
  0
LTYPE
  5
86D
100
AcDbSymbolTableRecord
100
AcDbLinetypeTableRecord
  2
BYLAYER
 70
     0
  3

 72
    65
 73
     0
 40
0.0
  0
LTYPE
  5
86E
100
AcDbSymbolTableRecord
100
AcDbLinetypeTableRecord
  2
CONTINUOUS
 70
     0
  3
Solid line
 72
    65
 73
     0
 40
0.0
  0
ENDTAB
  0
TABLE
  2
LAYER
  5
85D
100
AcDbSymbolTable
 70
     8
  0
LAYER
  5
869
100
AcDbSymbolTableRecord
100
AcDbLayerTableRecord
  2
0
 70
     0
 62
     7
  6
CONTINUOUS
  0
LAYER
  5
880
100
AcDbSymbolTableRecord
100
AcDbLayerTableRecord
  2
PV
 70
     0
 62
     7
  6
CONTINUOUS
  0
LAYER
  5
881
100
AcDbSymbolTableRecord
100
AcDbLayerTableRecord
  2
FLJ
 70
     0
 62
     2
  6
CONTINUOUS
  0
LAYER
  5
882
100
AcDbSymbolTableRecord
100
AcDbLayerTableRecord
  2
CYLF
 70
     0
 62
     2
  6
CONTINUOUS
  0
LAYER
  5
883
100
AcDbSymbolTableRecord
100
AcDbLayerTableRecord
  2
SUPOTF
 70
     0
 62
     2
  6
CONTINUOUS
  0
LAYER
  5
884
100
AcDbSymbolTableRecord
100
AcDbLayerTableRecord
  2
HOOK
 70
     0
 62
     6
  6
CONTINUOUS
  0
LAYER
  5
885
100
AcDbSymbolTableRecord
100
AcDbLayerTableRecord
  2
点
 70
     0
 62
     1
  6
CONTINUOUS
  0
LAYER
  5
886
100
AcDbSymbolTableRecord
100
AcDbLayerTableRecord
  2
DEFPOINTS
 70
     0
 62
     7
  6
CONTINUOUS
  0
ENDTAB
  0
TABLE
  2
STYLE
  5
85E
100
AcDbSymbolTable
 70
     2
  0
STYLE
  5
86A
100
AcDbSymbolTableRecord
100
AcDbTextStyleTableRecord
  2
STANDARD
 70
     0
 40
0.0
 41
1.0
 50
0.0
 71
     0
 42
1000.0
  3
txt
  4

  0
STYLE
  5
878
100
AcDbSymbolTableRecord
100
AcDbTextStyleTableRecord
  2
EXTFONT
 70
     0
 40
0.0
 41
1.0
 50
0.0
 71
     0
 42
700.0
  3
txt.shx
  4
EXTFONT.SHX
  0
ENDTAB
  0
TABLE
  2
VIEW
  5
861
100
AcDbSymbolTable
 70
     0
  0
ENDTAB
  0
TABLE
  2
UCS
  5
862
100
AcDbSymbolTable
 70
     0
  0
ENDTAB
  0
TABLE
  2
APPID
  5
864
100
AcDbSymbolTable
 70
     5
  0
APPID
  5
86B
100
AcDbSymbolTableRecord
100
AcDbRegAppTableRecord
  2
ACAD
 70
     0
  0
APPID
  5
87A
100
AcDbSymbolTableRecord
100
AcDbRegAppTableRecord
  2
CONTENTTABDATA
 70
     0
  0
APPID
  5
87B
100
AcDbSymbolTableRecord
100
AcDbRegAppTableRecord
  2
CONTENTCURRENTTAB
 70
     0
  0
APPID
  5
87C
100
AcDbSymbolTableRecord
100
AcDbRegAppTableRecord
  2
CONTENTBLOCKICON
 70
     0
  0
APPID
  5
87D
100
AcDbSymbolTableRecord
100
AcDbRegAppTableRecord
  2
CONTENTBLOCKDESCRIPTION
 70
     0
  0
ENDTAB
  0
TABLE
  2
DIMSTYLE
  5
865
100
AcDbSymbolTable
 70
     2
  0
DIMSTYLE
105
87E
100
AcDbSymbolTableRecord
100
AcDbDimStyleTableRecord
  2
CADLOG
 70
     0
  3

  4

  5

  6

  7

 40
1.0
 41
100.0
 42
100.0
 43
100.0
 44
100.0
 45
1.0
 46
0.0
 47
0.0
 48
0.0
140
200.0
141
0.0
142
0.0
143
25.4
144
1.0
145
0.0
146
1.0
147
0.0
 71
     0
 72
     0
 73
     0
 74
     0
 75
     0
 76
     0
 77
     1
 78
     8
170
     0
171
     2
172
     0
173
     0
174
     0
175
     0
176
     0
177
     0
178
     0
270
     2
271
     2
272
     2
273
     2
274
     2
340
878
275
     0
280
     0
281
     0
282
     0
283
     1
284
     8
285
     8
286
     8
287
     5
288
     0
  0
DIMSTYLE
105
87F
100
AcDbSymbolTableRecord
100
AcDbDimStyleTableRecord
  2
STANDARD
 70
     0
  3

  4

  5

  6

  7

 40
1.0
 41
0.18
 42
0.0625
 43
0.38
 44
0.18
 45
0.0
 46
0.0
 47
0.0
 48
0.0
140
0.18
141
0.09
142
0.0
143
25.4
144
1.0
145
0.0
146
1.0
147
0.09
 71
     0
 72
     0
 73
     1
 74
     1
 75
     0
 76
     0
 77
     0
 78
     0
170
     0
171
     2
172
     0
173
     0
174
     0
175
     0
176
     0
177
     0
178
     0
270
     2
271
     2
272
     2
273
     2
274
     2
340
878
275
     0
280
     0
281
     0
282
     0
283
     1
284
     8
285
     8
286
     8
287
     5
288
     0
  0
ENDTAB
  0
TABLE
  2
BLOCK_RECORD
  5
85C
100
AcDbSymbolTable
 70
     1
  0
BLOCK_RECORD
  5
872
100
AcDbSymbolTableRecord
100
AcDbBlockTableRecord
  2
*MODEL_SPACE
  0
BLOCK_RECORD
  5
86F
100
AcDbSymbolTableRecord
100
AcDbBlockTableRecord
  2
*PAPER_SPACE
  0
BLOCK_RECORD
  5
877
100
AcDbSymbolTableRecord
100
AcDbBlockTableRecord
  2
PP1
  0
ENDTAB
  0
ENDSEC
  0
SECTION
  2
BLOCKS
  0
BLOCK
  5
889
100
AcDbEntity
  8
0
100
AcDbBlockBegin
  2
*MODEL_SPACE
 70
     0
 10
0.0
 20
0.0
 30
0.0
  3
*MODEL_SPACE
  1

  0
ENDBLK
  5
88A
100
AcDbEntity
  8
0
100
AcDbBlockEnd
  0
BLOCK
  5
887
100
AcDbEntity
 67
     1
  8
0
100
AcDbBlockBegin
  2
*PAPER_SPACE
 70
     0
 10
0.0
 20
0.0
 30
0.0
  3
*PAPER_SPACE
  1

  0
ENDBLK
  5
888
100
AcDbEntity
 67
     1
  8
0
100
AcDbBlockEnd
  0
BLOCK
  5
2A
100
AcDbEntity
  8
PV
100
AcDbBlockBegin
  2
PP1
 70
     2
 10
0.0
 20
0.0
 30
0.0
  3
PP1
  1

  0
ENDBLK
  5
2B
100
AcDbEntity
  8
PV
100
AcDbBlockEnd
  0
ENDSEC
  0
SECTION
  2
ENTITIES
  0
INSERT
  5
76
100
AcDbEntity
  8
PV
  6
BYBLOCK
 62
     0
100
AcDbBlockReference
  2
PP1
 10
0.0
 20
0.0
 30
0.0
  0
INSERT
  5
77
100
AcDbEntity
  8
0
  6
CONTINUOUS
100
AcDbBlockReference
 66
     1
  2
PP1
 10
0.0
 20
0.0
 30
0.0
  0
SEQEND
  5
78
100
AcDbEntity
  8
0
  6
CONTINUOUS
  0
LINE
  5
7A
100
AcDbEntity
  8
CYLF
 62
     5
100
AcDbLine
 10
39305.847527
 20
16195.3878
 30
0.0
 11
41460.274754
 21
14269.130786
 31
0.0
  0
LINE
  5
7B
100
AcDbEntity
  8
CYLF
 62
     5
100
AcDbLine
 10
38004.929682
 20
17541.365142
 30
0.0
 11
41694.121159
 21
14239.388047
 31
0.0
  0
LINE
  5
7C
100
AcDbEntity
  8
CYLF
 62
     5
100
AcDbLine
 10
41638.474234
 20
14468.474721
 30
0.0
 11
41460.215809
 21
14269.026261
 31
0.0
  0
LINE
  5
7D
100
AcDbEntity
  8
CYLF
 62
     5
100
AcDbLine
 10
39484.049381
 20
16394.710543
 30
0.0
 11
41638.474234
 21
14468.474721
 31
0.0
  0
LINE
  5
7E
100
AcDbEntity
  8
CYLF
 62
     5
100
AcDbLine
 10
39404.808902
 20
16486.119224
 30
0.0
 11
39494.273714
 21
16406.127921
 31
0.0
  0
LINE
  5
7F
100
AcDbEntity
  8
CYLF
 62
     5
100
AcDbLine
 10
39295.643153
 20
16183.9905
 30
0.0
 11
39494.269916
 21
16406.141543
 31
0.0
  0
LINE
  5
80
100
AcDbEntity
  8
CYLF
 62
     5
100
AcDbLine
 10
38186.094134
 20
17196.158757
 30
0.0
 11
39214.45255
 21
16273.218602
 31
0.0
  0
LINE
  5
81
100
AcDbEntity
  8
CYLF
 62
     5
100
AcDbLine
 10
39206.182138
 20
16263.968181
 30
0.0
 11
39404.800191
 21
16486.124136
 31
0.0
  0
LINE
  5
82
100
AcDbEntity
  8
CYLF
 62
     5
100
AcDbLine
 10
39206.182138
 20
16263.968181
 30
0.0
 11
39295.646951
 21
16183.976878
 31
0.0
  0
LINE
  5
83
100
AcDbEntity
  8
CYLF
 62
     5
100
AcDbLine
 10
38368.184986
 20
17399.817668
 30
0.0
 11
39396.552113
 21
16476.872601
 31
0.0
  0
ARC
  5
84
100
AcDbEntity
  8
CYLF
 62
     5
100
AcDbCircle
 10
38168.319469
 20
17395.254753
 30
0.0
 40
120.0
100
AcDbArc
 50
42.7214
 51
233.679
  0
LINE
  5
85
100
AcDbEntity
  8
CYLF
 62
     5
100
AcDbLine
 10
38323.636133
 20
17403.942319
 30
0.0
 11
38256.470878
 21
17476.67368
 31
0.0
  0
LINE
  5
86
100
AcDbEntity
  8
CYLF
 62
     5
100
AcDbLine
 10
38277.854975
 20
17517.769227
 30
0.0
 11
38055.507773
 21
17269.088666
 31
0.0
  0
CIRCLE
  5
87
100
AcDbEntity
  8
CYLF
 62
     5
100
AcDbCircle
 10
38168.319469
 20
17395.254753
 30
0.0
 40
65.0
  0
LINE
  5
88
100
AcDbEntity
  8
CYLF
 62
     5
100
AcDbLine
 10
38186.080511
 20
17196.154959
 30
0.0
 11
38368.176276
 21
17399.82258
 31
0.0
  0
LINE
  5
89
100
AcDbEntity
  8
CYLF
 62
     5
100
AcDbLine
 10
38323.636133
 20
17403.942319
 30
0.0
 11
38176.998324
 21
17239.943001
 31
0.0
  0
LINE
  5
8A
100
AcDbEntity
  8
CYLF
 62
     5
100
AcDbLine
 10
38177.007034
 20
17239.938089
 30
0.0
 11
38097.241448
 21
17298.570689
 31
0.0
  0
LINE
  5
8B
100
AcDbEntity
  8
CYLF
 62
     5
100
AcDbLine
 10
38188.678009
 20
17252.999595
 30
0.0
 11
38215.481806
 21
17229.032639
 31
0.0
  0
LINE
  5
8C
100
AcDbEntity
  8
CYLF
 62
     5
100
AcDbLine
 10
38311.979895
 20
17390.906944
 30
0.0
 11
38338.774981
 21
17366.9449
 31
0.0
  0
POINT
  5
8D
100
AcDbEntity
  8
CYLF
 62
     5
100
AcDbPoint
 10
38168.319469
 20
17395.254753
 30
0.0
  0
CIRCLE
  5
8E
100
AcDbEntity
  8
CYLF
 62
     5
100
AcDbCircle
 10
41616.490242
 20
14308.797532
 30
0.0
 40
90.0
  0
LINE
  5
8F
100
AcDbEntity
  8
CYLF
 62
     5
100
AcDbLine
 10
41676.478164
 20
14375.890372
 30
0.0
 11
41686.481259
 21
14387.078225
 31
0.0
  0
LINE
  5
90
100
AcDbEntity
  8
CYLF
 62
     5
100
AcDbLine
 10
41556.502319
 20
14241.704692
 30
0.0
 11
41546.499197
 21
14230.516808
 31
0.0
  0
LINE
  5
91
100
AcDbEntity
  8
CYLF
 62
     5
100
AcDbLine
 10
41622.230294
 20
14450.299822
 30
0.0
 11
41686.481259
 21
14387.078225
 31
0.0
  0
LINE
  5
92
100
AcDbEntity
  8
CYLF
 62
     5
100
AcDbLine
 10
41476.509817
 20
14287.319007
 30
0.0
 11
41546.499197
 21
14230.516808
 31
0.0
  0
POINT
  5
93
100
AcDbEntity
  8
CYLF
 62
     5
100
AcDbPoint
 10
41616.490242
 20
14308.797532
 30
0.0
  0
LINE
  5
94
100
AcDbEntity
  8
SUPOTF
 62
     5
100
AcDbLine
 10
42097.948809
 20
14104.068184
 30
0.0
 11
42052.882203
 21
14181.991204
 31
0.0
  0
LINE
  5
95
100
AcDbEntity
  8
SUPOTF
 62
     5
100
AcDbLine
 10
42059.061479
 20
14081.707796
 30
0.0
 11
41939.087824
 21
14289.49441
 31
0.0
  0
LINE
  5
96
100
AcDbEntity
  8
SUPOTF
 62
     5
100
AcDbLine
 10
41679.859704
 20
14345.35442
 30
0.0
 11
41553.914501
 21
14272.69853
 31
0.0
  0
LINE
  5
97
100
AcDbEntity
  8
SUPOTF
 62
     5
100
AcDbLine
 10
41571.804035
 20
14386.173316
 30
0.0
 11
41656.926369
 21
14238.780914
 31
0.0
  0
LINE
  5
98
100
AcDbEntity
  8
SUPOTF
 62
     5
100
AcDbLine
 10
43134.330987
 20
14979.691128
 30
0.0
 11
41484.683708
 21
14027.185401
 31
0.0
  0
LINE
  5
99
100
AcDbEntity
  8
SUPOTF
 62
     5
100
AcDbLine
 10
41393.087258
 20
14185.835105
 30
0.0
 11
42369.488589
 21
15944.497583
 31
0.0
  0
LINE
  5
9A
100
AcDbEntity
  8
SUPOTF
 62
     5
100
AcDbLine
 10
41571.804035
 20
14386.173316
 30
0.0
 11
41656.926369
 21
14238.780914
 31
0.0
  0
LINE
  5
9B
100
AcDbEntity
  8
SUPOTF
 62
     5
100
AcDbLine
 10
41679.859704
 20
14345.35442
 30
0.0
 11
41473.044302
 21
14225.937747
 31
0.0
  0
LINE
  5
9C
100
AcDbEntity
  8
SUPOTF
 62
     5
100
AcDbLine
 10
41629.543235
 20
14110.827238
 30
0.0
 11
42042.742786
 21
14109.970718
 31
0.0
  0
LINE
  5
9D
100
AcDbEntity
  8
SUPOTF
 62
     5
100
AcDbLine
 10
42097.948809
 20
14104.068184
 30
0.0
 11
42059.061479
 21
14081.707796
 31
0.0
  0
LINE
  5
9E
100
AcDbEntity
  8
SUPOTF
 62
     5
100
AcDbLine
 10
43170.153388
 20
14617.613172
 30
0.0
 11
42410.1153
 21
15933.90353
 31
0.0
  0
LINE
  5
9F
100
AcDbEntity
  8
SUPOTF
 62
     5
100
AcDbLine
 10
42555.295256
 20
15982.510414
 30
0.0
 11
43209.327507
 21
14849.797248
 31
0.0
  0
ARC
  5
A0
100
AcDbEntity
  8
SUPOTF
 62
     5
100
AcDbCircle
 10
42814.529819
 20
14546.047669
 30
0.0
 40
200.0
100
AcDbArc
 50
40.8038
 51
90.001
  0
LINE
  5
A1
100
AcDbEntity
  8
SUPOTF
 62
     5
100
AcDbLine
 10
42316.05407
 20
14427.592707
 30
0.0
 11
42221.088114
 21
14344.150815
 31
0.0
  0
ARC
  5
A2
100
AcDbEntity
  8
SUPOTF
 62
     5
100
AcDbCircle
 10
42126.701014
 20
14224.582237
 30
0.0
 40
54.9997
100
AcDbArc
 50
220.29
 51
76.6599
  0
LINE
  5
A3
100
AcDbEntity
  8
SUPOTF
 62
     5
100
AcDbLine
 10
42219.948081
 20
14343.065263
 30
0.0
 11
42158.637169
 21
14289.228048
 31
0.0
  0
ARC
  5
A4
100
AcDbEntity
  8
SUPOTF
 62
     5
100
AcDbCircle
 10
42126.704434
 20
14224.591634
 30
0.0
 40
54.9997
100
AcDbArc
 50
76.6607
 51
210.005
  0
LINE
  5
A5
100
AcDbEntity
  8
SUPOTF
 62
     5
100
AcDbLine
 10
42074.952936
 20
14243.214804
 30
0.0
 11
42052.882203
 21
14181.991204
 31
0.0
  0
LINE
  5
A6
100
AcDbEntity
  8
SUPOTF
 62
     5
100
AcDbLine
 10
42158.637169
 20
14289.228048
 30
0.0
 11
42139.371541
 21
14278.106574
 31
0.0
  0
ARC
  5
A7
100
AcDbEntity
  8
SUPOTF
 62
     5
100
AcDbCircle
 10
42304.161981
 20
14441.11557
 30
0.0
 40
18.0
100
AcDbArc
 50
311.312
 51
30.0032
  0
LINE
  5
A8
100
AcDbEntity
  8
SUPOTF
 62
     5
100
AcDbLine
 10
42319.778873
 20
14450.106497
 30
0.0
 11
42294.121937
 21
14494.520158
 31
0.0
  0
LINE
  5
A9
100
AcDbEntity
  8
SUPOTF
 62
     5
100
AcDbLine
 10
42749.623433
 20
14746.059127
 30
0.0
 11
42814.44014
 21
14746.081879
 31
0.0
  0
LINE
  5
AA
100
AcDbEntity
  8
SUPOTF
 62
     5
100
AcDbLine
 10
42744.670698
 20
14754.672513
 30
0.0
 11
42749.623433
 21
14746.059127
 31
0.0
  0
ARC
  5
AB
100
AcDbEntity
  8
SUPOTF
 62
     5
100
AcDbCircle
 10
43079.432764
 20
14774.769116
 30
0.0
 40
150.0
100
AcDbArc
 50
220.804
 51
30.0026
  0
CIRCLE
  5
AC
100
AcDbEntity
  8
SUPOTF
 62
     5
100
AcDbCircle
 10
43079.432764
 20
14774.769116
 30
0.0
 40
45.0
  0
CIRCLE
  5
AD
100
AcDbEntity
  8
SUPOTF
 62
     5
100
AcDbCircle
 10
42465.420414
 20
15838.206851
 30
0.0
 40
55.0
  0
LINE
  5
AE
100
AcDbEntity
  8
SUPOTF
 62
     5
100
AcDbLine
 10
42586.161726
 20
15907.968003
 30
0.0
 11
42348.770496
 21
15770.915295
 31
0.0
  0
LINE
  5
AF
100
AcDbEntity
  8
SUPOTF
 62
     5
100
AcDbLine
 10
42555.295256
 20
15982.510414
 30
0.0
 11
42473.360281
 21
16004.457391
 31
0.0
  0
LINE
  5
B0
100
AcDbEntity
  8
SUPOTF
 62
     5
100
AcDbLine
 10
42473.360281
 20
16004.457391
 30
0.0
 11
42369.492009
 21
15944.50698
 31
0.0
  0
LINE
  5
BA
100
AcDbEntity
  8
SUPOTF
 62
     5
100
AcDbLine
 10
41393.087258
 20
14185.835105
 30
0.0
 11
41484.683708
 21
14027.185401
 31
0.0
  0
POINT
  5
BB
100
AcDbEntity
  8
SUPOTF
 62
     5
100
AcDbPoint
 10
41616.490242
 20
14308.797532
 30
0.0
  0
LINE
  5
BC
100
AcDbEntity
  8
FLJ
 62
     5
100
AcDbLine
 10
33302.98196
 20
20420.053727
 30
0.0
 11
26376.250966
 21
24418.985203
 31
0.0
  0
LINE
  5
BD
100
AcDbEntity
  8
FLJ
 62
     5
100
AcDbLine
 10
33936.76058
 20
20919.020353
 30
0.0
 11
27012.875858
 21
24916.308623
 31
0.0
  0
LINE
  5
BE
100
AcDbEntity
  8
FLJ
 62
     5
100
AcDbLine
 10
19066.206084
 20
28672.552913
 30
0.0
 11
12130.788862
 21
32676.717913
 31
0.0
  0
LINE
  5
BF
100
AcDbEntity
  8
FLJ
 62
     5
100
AcDbLine
 10
19453.2461
 20
29141.915579
 30
0.0
 11
12430.788862
 21
33196.333155
 31
0.0
  0
LINE
  5
C0
100
AcDbEntity
  8
FLJ
 62
     5
100
AcDbLine
 10
12107.110294
 20
32646.228257
 30
0.0
 11
12140.074251
 21
32507.920678
 31
0.0
  0
LINE
  5
C1
100
AcDbEntity
  8
FLJ
 62
     5
100
AcDbLine
 10
11554.803724
 20
33159.062389
 30
0.0
 11
11194.808724
 21
32535.532758
 31
0.0
  0
POINT
  5
C2
100
AcDbEntity
  8
FLJ
 62
     5
100
AcDbPoint
 10
11586.264522
 20
32563.554089
 30
0.0
  0
ARC
  5
C3
100
AcDbEntity
  8
FLJ
 62
     5
100
AcDbCircle
 10
11586.26698
 20
32563.558347
 30
0.0
 40
300.0
100
AcDbArc
 50
240.0
 51
313.69
  0
CIRCLE
  5
C4
100
AcDbEntity
  8
FLJ
 62
     5
100
AcDbCircle
 10
11586.26698
 20
32563.558347
 30
0.0
 40
272.5
  0
ARC
  5
C5
100
AcDbEntity
  8
FLJ
 62
     5
100
AcDbCircle
 10
11345.693296
 20
32436.872504
 30
0.0
 40
149.25
100
AcDbArc
 50
302.03
 51
174.305
  0
ARC
  5
C6
100
AcDbEntity
  8
FLJ
 62
     5
100
AcDbCircle
 10
11264.090756
 20
32495.532758
 30
0.0
 40
80.0
100
AcDbArc
 50
150.0
 51
240.0
  0
LINE
  5
C7
100
AcDbEntity
  8
FLJ
 62
     5
100
AcDbLine
 10
11224.090756
 20
32426.250726
 30
0.0
 11
11436.26698
 21
32303.750726
 31
0.0
  0
ARC
  5
C8
100
AcDbEntity
  8
FLJ
 62
     5
100
AcDbCircle
 10
11345.693296
 20
32436.872504
 30
0.0
 40
149.25
100
AcDbArc
 50
174.306
 51
302.03
  0
LINE
  5
C9
100
AcDbEntity
  8
FLJ
 62
     5
100
AcDbLine
 10
11646.35198
 20
32667.62862
 30
0.0
 11
11513.23698
 21
32437.066677
 31
0.0
  0
LINE
  5
CA
100
AcDbEntity
  8
FLJ
 62
     5
100
AcDbLine
 10
11684.231774
 20
32506.998347
 30
0.0
 11
11484.980309
 21
32622.024687
 31
0.0
  0
LINE
  5
CB
100
AcDbEntity
  8
FLJ
 62
     5
100
AcDbLine
 10
11654.966736
 20
32520.649816
 30
0.0
 11
11652.664456
 21
32526.182148
 31
0.0
  0
LINE
  5
CC
100
AcDbEntity
  8
FLJ
 62
     5
100
AcDbLine
 10
11988.139535
 20
32532.58203
 30
0.0
 11
11793.483014
 21
32346.627047
 31
0.0
  0
LINE
  5
CD
100
AcDbEntity
  8
FLJ
 62
     5
100
AcDbLine
 10
11987.378735
 20
32531.855239
 30
0.0
 11
12055.53066
 21
32461.526883
 31
0.0
  0
ARC
  5
CE
100
AcDbEntity
  8
FLJ
 62
     5
100
AcDbCircle
 10
12091.440208
 20
32496.324045
 30
0.0
 40
50.0
100
AcDbArc
 50
224.542
 51
13.776
  0
ARC
  5
CF
100
AcDbEntity
  8
FLJ
 62
     5
100
AcDbCircle
 10
12200.311712
 20
33421.475021
 30
0.0
 40
150.0
100
AcDbArc
 50
25.0804
 51
60.0013
  0
CIRCLE
  5
D0
100
AcDbEntity
  8
FLJ
 62
     5
100
AcDbCircle
 10
12169.56825
 20
33473.865783
 30
0.0
 40
250.0
  0
LINE
  5
D1
100
AcDbEntity
  8
FLJ
 62
     5
100
AcDbLine
 10
11554.795064
 20
33159.067389
 30
0.0
 11
11926.251449
 21
33699.688721
 31
0.0
  0
LINE
  5
D2
100
AcDbEntity
  8
FLJ
 62
     5
100
AcDbLine
 10
12344.464076
 20
33711.794239
 30
0.0
 11
12257.714076
 21
33561.538832
 31
0.0
  0
LINE
  5
D3
100
AcDbEntity
  8
FLJ
 62
     5
100
AcDbLine
 10
12288.167425
 20
33744.285579
 30
0.0
 11
12201.422425
 21
33594.038832
 31
0.0
  0
ARC
  5
D4
100
AcDbEntity
  8
FLJ
 62
     5
100
AcDbCircle
 10
11967.462815
 20
33671.368901
 30
0.0
 40
50.0
100
AcDbArc
 50
60.0013
 51
145.507
  0
LINE
  5
D5
100
AcDbEntity
  8
FLJ
 62
     5
100
AcDbLine
 10
12275.303052
 20
33551.383832
 30
0.0
 11
11992.462815
 21
33714.670172
 31
0.0
  0
ARC
  5
D6
100
AcDbEntity
  8
FLJ
 62
     5
100
AcDbCircle
 10
12316.81325
 20
33728.901604
 30
0.0
 40
32.5
100
AcDbArc
 50
330.0
 51
150.0
  0
LINE
  5
D7
100
AcDbEntity
  8
FLJ
 62
     5
100
AcDbLine
 10
12453.162893
 20
33235.086114
 30
0.0
 11
12120.658862
 21
32659.172239
 31
0.0
  0
LINE
  5
D8
100
AcDbEntity
  8
FLJ
 62
     5
100
AcDbLine
 10
12120.658862
 20
32659.172239
 30
0.0
 11
12107.110294
 21
32646.228257
 31
0.0
  0
LINE
  5
D9
100
AcDbEntity
  8
FLJ
 62
     5
100
AcDbLine
 10
12336.163653
 20
33485.057486
 30
0.0
 11
12453.162893
 21
33235.086114
 31
0.0
  0
LINE
  5
DA
100
AcDbEntity
  8
FLJ
 62
     5
100
AcDbLine
 10
26173.568768
 20
24536.206189
 30
0.0
 11
19227.603357
 21
28546.461189
 31
0.0
  0
LINE
  5
DB
100
AcDbEntity
  8
FLJ
 62
     5
100
AcDbLine
 10
19836.977979
 20
29011.288996
 30
0.0
 11
26771.560278
 21
25007.606039
 31
0.0
  0
ARC
  5
DC
100
AcDbEntity
  8
FLJ
 62
     5
100
AcDbCircle
 10
19407.383637
 20
29056.249768
 30
0.0
 40
49.9999
100
AcDbArc
 50
307.312
 51
2.858
  0
LINE
  5
DD
100
AcDbEntity
  8
FLJ
 62
     5
100
AcDbLine
 10
19836.752716
 20
29011.118829
 30
0.0
 11
19213.456083
 21
28535.657392
 31
0.0
  0
LINE
  5
DE
100
AcDbEntity
  8
FLJ
 62
     5
100
AcDbLine
 10
19128.735103
 20
28780.916351
 30
0.0
 11
19437.82169
 21
29016.610023
 31
0.0
  0
LINE
  5
DF
100
AcDbEntity
  8
FLJ
 62
     5
100
AcDbLine
 10
19065.370739
 20
28621.166052
 30
0.0
 11
19056.232065
 21
28655.217405
 31
0.0
  0
LINE
  5
E0
100
AcDbEntity
  8
FLJ
 62
     5
100
AcDbLine
 10
19128.756084
 20
28780.892691
 30
0.0
 11
19056.191084
 21
28655.206424
 31
0.0
  0
LINE
  5
E1
100
AcDbEntity
  8
FLJ
 62
     5
100
AcDbLine
 10
19213.502063
 20
28535.677033
 30
0.0
 11
19065.411719
 21
28621.177033
 31
0.0
  0
ARC
  5
E2
100
AcDbEntity
  8
FLJ
 62
     5
100
AcDbCircle
 10
19538.346317
 20
29240.503785
 30
0.0
 40
89.9999
100
AcDbArc
 50
37.483
 51
150.001
  0
CIRCLE
  5
E3
100
AcDbEntity
  8
FLJ
 62
     5
100
AcDbCircle
 10
19538.471939
 20
29240.581369
 30
0.0
 40
195.0
  0
ARC
  5
E4
100
AcDbEntity
  8
FLJ
 62
     5
100
AcDbCircle
 10
19538.346317
 20
29240.503785
 30
0.0
 40
89.9999
100
AcDbArc
 50
150.002
 51
182.871
  0
LINE
  5
E5
100
AcDbEntity
  8
FLJ
 62
     5
100
AcDbLine
 10
19608.767931
 20
29296.817599
 30
0.0
 11
19836.969319
 21
29011.293996
 31
0.0
  0
LINE
  5
E6
100
AcDbEntity
  8
FLJ
 62
     5
100
AcDbLine
 10
19448.520778
 20
29236.061387
 30
0.0
 11
19457.416345
 21
29058.828961
 31
0.0
  0
LINE
  5
E7
100
AcDbEntity
  8
FLJ
 62
     5
100
AcDbLine
 10
26163.587428
 20
24518.898002
 30
0.0
 11
26172.746724
 21
24484.742367
 31
0.0
  0
LINE
  5
E8
100
AcDbEntity
  8
FLJ
 62
     5
100
AcDbLine
 10
26342.342799
 20
24386.791386
 30
0.0
 11
27014.617355
 21
24911.96388
 31
0.0
  0
LINE
  5
E9
100
AcDbEntity
  8
FLJ
 62
     5
100
AcDbLine
 10
26342.348158
 20
24386.880668
 30
0.0
 11
26172.749403
 21
24484.787008
 31
0.0
  0
LINE
  5
EA
100
AcDbEntity
  8
FLJ
 62
     5
100
AcDbLine
 10
26178.086088
 20
24543.990418
 30
0.0
 11
26804.445223
 21
25033.295402
 31
0.0
  0
LINE
  5
EB
100
AcDbEntity
  8
FLJ
 62
     5
100
AcDbLine
 10
26178.103768
 20
24544.06104
 30
0.0
 11
26163.588768
 21
24518.920322
 31
0.0
  0
LINE
  5
EC
100
AcDbEntity
  8
FLJ
 62
     5
100
AcDbLine
 10
27008.133968
 20
24915.695519
 30
0.0
 11
27088.526273
 21
25030.939075
 31
0.0
  0
LINE
  5
ED
100
AcDbEntity
  8
FLJ
 62
     5
100
AcDbLine
 10
26818.850049
 20
25053.846154
 30
0.0
 11
26806.350049
 21
25032.195519
 31
0.0
  0
LINE
  5
EE
100
AcDbEntity
  8
FLJ
 62
     5
100
AcDbLine
 10
26818.850049
 20
25053.846154
 30
0.0
 11
26965.988488
 21
25116.697405
 31
0.0
  0
LINE
  5
EF
100
AcDbEntity
  8
FLJ
 62
     5
100
AcDbLine
 10
27014.617355
 20
24911.96388
 30
0.0
 11
26804.445223
 21
25033.295402
 31
0.0
  0
LINE
  5
F0
100
AcDbEntity
  8
FLJ
 62
     5
100
AcDbLine
 10
27088.526273
 20
25030.939075
 30
0.0
 11
26965.988488
 21
25116.697405
 31
0.0
  0
LINE
  5
F1
100
AcDbEntity
  8
FLJ
 62
     5
100
AcDbLine
 10
42593.884783
 20
15940.713663
 30
0.0
 11
34184.309018
 21
20795.715309
 31
0.0
  0
LINE
  5
F2
100
AcDbEntity
  8
FLJ
 62
     5
100
AcDbLine
 10
42056.325953
 20
15329.634459
 30
0.0
 11
33506.661684
 21
20265.515697
 31
0.0
  0
LINE
  5
F3
100
AcDbEntity
  8
FLJ
 62
     5
100
AcDbLine
 10
33284.211093
 20
20405.45997
 30
0.0
 11
33266.706093
 21
20375.140421
 31
0.0
  0
LINE
  5
F4
100
AcDbEntity
  8
FLJ
 62
     5
100
AcDbLine
 10
33466.667746
 20
20230.744164
 30
0.0
 11
34192.642498
 21
20802.289319
 31
0.0
  0
LINE
  5
F5
100
AcDbEntity
  8
FLJ
 62
     5
100
AcDbLine
 10
33466.600163
 20
20230.887106
 30
0.0
 11
33275.832087
 21
20341.027106
 31
0.0
  0
LINE
  5
F6
100
AcDbEntity
  8
FLJ
 62
     5
100
AcDbLine
 10
33266.822336
 20
20375.06176
 30
0.0
 11
33275.951991
 21
20340.934786
 31
0.0
  0
LINE
  5
F7
100
AcDbEntity
  8
FLJ
 62
     5
100
AcDbLine
 10
33284.270016
 20
20405.322028
 30
0.0
 11
33959.487478
 21
20936.91298
 31
0.0
  0
LINE
  5
F8
100
AcDbEntity
  8
FLJ
 62
     5
100
AcDbLine
 10
34192.588575
 20
20802.435922
 30
0.0
 11
33959.419895
 21
20937.055922
 31
0.0
  0
LINE
  5
F9
100
AcDbEntity
  8
FLJ
 62
     5
100
AcDbLine
 10
38399.091832
 20
17441.024183
 30
0.0
 11
38185.675775
 21
17227.072156
 31
0.0
  0
LINE
  5
FA
100
AcDbEntity
  8
FLJ
 62
     5
100
AcDbLine
 10
38142.492416
 20
17226.43006
 30
0.0
 11
37293.420037
 21
18079.349209
 31
0.0
  0
POINT
  5
FB
100
AcDbEntity
  8
FLJ
 62
     5
100
AcDbPoint
 10
38168.319469
 20
17395.254753
 30
0.0
  0
LINE
  5
FC
100
AcDbEntity
  8
FLJ
 62
     5
100
AcDbLine
 10
38242.32554
 20
17523.446102
 30
0.0
 11
38079.2192
 21
17240.917635
 31
0.0
  0
LINE
  5
FD
100
AcDbEntity
  8
FLJ
 62
     5
100
AcDbLine
 10
38279.599804
 20
17331.007022
 30
0.0
 11
38033.189596
 21
17473.272022
 31
0.0
  0
ARC
  5
FE
100
AcDbEntity
  8
FLJ
 62
     5
100
AcDbCircle
 10
38163.753395
 20
17247.595155
 30
0.0
 40
30.0
100
AcDbArc
 50
224.871
 51
316.879137
  0
LINE
  5
FF
100
AcDbEntity
  8
FLJ
 62
     5
100
AcDbLine
 10
38202.59525
 20
17554.571222
 30
0.0
 11
37423.166047
 21
18004.540242
 31
0.0
  0
POINT
  5
100
100
AcDbEntity
  8
FLJ
 62
     5
100
AcDbPoint
 10
42465.420414
 20
15838.206851
 30
0.0
  0
LINE
  5
101
100
AcDbEntity
  8
FLJ
 62
     5
100
AcDbLine
 10
42630.488523
 20
15804.113202
 30
0.0
 11
42555.488523
 21
15674.209392
 31
0.0
  0
LINE
  5
102
100
AcDbEntity
  8
FLJ
 62
     5
100
AcDbLine
 10
42056.325953
 20
15329.634459
 30
0.0
 11
42555.488523
 21
15674.209392
 31
0.0
  0
LINE
  5
103
100
AcDbEntity
  8
FLJ
 62
     5
100
AcDbLine
 10
42593.884783
 20
15940.713663
 30
0.0
 11
42630.488523
 21
15804.113202
 31
0.0
  0
CIRCLE
  5
104
100
AcDbEntity
  8
FLJ
 62
     5
100
AcDbCircle
 10
42465.476197
 20
15838.177608
 30
0.0
 40
55.0
  0
TEXT
  5
22A
100
AcDbEntity
  8
0
100
AcDbText
 10
15984.077414
 20
15045.531128
 30
0.0
 40
490.0
  1
AR400110P
  7
EXTFONT
100
AcDbText
  0
TEXT
  5
22B
100
AcDbEntity
  8
0
100
AcDbText
 10
15838.272366
 20
14316.981796
 30
0.0
 40
490.0
  1
AR-4000M  
  7
EXTFONT
100
AcDbText
  0
TEXT
  5
22C
100
AcDbEntity
  8
0
100
AcDbText
 10
15886.874022
 20
13620.812462
 30
0.0
 40
490.0
  1
FLJ
  7
EXTFONT
100
AcDbText
  0
LINE
  5
22D
100
AcDbEntity
  8
0
100
AcDbLine
 10
11856.080331
 20
13546.692707
 30
0.0
 11
22356.080331
 21
13546.692707
 31
0.0
  0
LINE
  5
22E
100
AcDbEntity
  8
0
100
AcDbLine
 10
11856.080331
 20
14246.692707
 30
0.0
 11
22356.080331
 21
14246.692707
 31
0.0
  0
LINE
  5
22F
100
AcDbEntity
  8
0
100
AcDbLine
 10
11856.080331
 20
14946.692707
 30
0.0
 11
22356.080331
 21
14946.692707
 31
0.0
  0
LINE
  5
230
100
AcDbEntity
  8
0
100
AcDbLine
 10
11856.080331
 20
15646.692707
 30
0.0
 11
22356.080331
 21
15646.692707
 31
0.0
  0
TEXT
  5
231
100
AcDbEntity
  8
0
100
AcDbText
 10
12031.140339
 20
14349.361794
 30
0.0
 40
560.0
  1
機　　　種
  7
EXTFONT
100
AcDbText
  0
TEXT
  5
232
100
AcDbEntity
  8
0
100
AcDbText
 10
12047.340944
 20
15061.721102
 30
0.0
 40
560.0
  1
ファイル名
  7
EXTFONT
100
AcDbText
  0
TEXT
  5
233
100
AcDbEntity
  8
0
100
AcDbText
 10
12014.939813
 20
13588.432514
 30
0.0
 40
560.0
  1
スペック
  7
EXTFONT
100
AcDbText
  0
LINE
  5
234
100
AcDbEntity
  8
0
100
AcDbLine
 10
11856.080331
 20
15646.692707
 30
0.0
 11
11856.080331
 21
13546.692707
 31
0.0
  0
LINE
  5
235
100
AcDbEntity
  8
0
100
AcDbLine
 10
15724.868448
 20
15646.692707
 30
0.0
 11
15724.868448
 21
13546.692707
 31
0.0
  0
LINE
  5
236
100
AcDbEntity
  8
0
100
AcDbLine
 10
22356.080331
 20
15646.692707
 30
0.0
 11
22356.080331
 21
13546.692707
 31
0.0
  0
POINT
  5
557
100
AcDbEntity
  8
SUPOTF
 62
     5
100
AcDbPoint
 10
42126.701014
 20
14224.582237
 30
0.0
  0
POINT
  5
558
100
AcDbEntity
  8
SUPOTF
 62
     5
100
AcDbPoint
 10
42465.420414
 20
15838.206851
 30
0.0
  0
POINT
  5
5D8
100
AcDbEntity
  8
HOOK
100
AcDbPoint
 10
11345.693296
 20
29400.913124
 30
0.0
  0
ARC
  5
5D9
100
AcDbEntity
  8
HOOK
100
AcDbCircle
 10
11362.221074
 20
28741.547013
 30
0.0
 40
171.0
100
AcDbArc
 50
283.48101
 51
0.032945
  0
ARC
  5
5DA
100
AcDbEntity
  8
HOOK
100
AcDbCircle
 10
11345.693296
 20
28746.033124
 30
0.0
 40
62.499722
100
AcDbArc
 50
202.500989
 51
267.189013
  0
ARC
  5
5DB
100
AcDbEntity
  8
HOOK
100
AcDbCircle
 10
11345.693296
 20
28746.033124
 30
0.0
 40
62.499861
100
AcDbArc
 50
267.066973
 51
0.032945
  0
ARC
  5
5DC
100
AcDbEntity
  8
HOOK
100
AcDbCircle
 10
11362.221074
 20
28725.033124
 30
0.0
 40
155.0
100
AcDbArc
 50
188.363026
 51
269.250973
  0
ARC
  5
5DD
100
AcDbEntity
  8
HOOK
100
AcDbCircle
 10
11362.221074
 20
28725.033124
 30
0.0
 40
155.0
100
AcDbArc
 50
269.768011
 51
284.900972
  0
LINE
  5
5DE
100
AcDbEntity
  8
HOOK
  6
CONTINUOUS
100
AcDbLine
 10
11486.26208
 20
29773.912129
 30
0.0
 11
11545.695796
 21
29672.598042
 31
0.0
  0
ARC
  5
5DF
100
AcDbEntity
  8
HOOK
100
AcDbCircle
 10
11480.554408
 20
28954.047013
 30
0.0
 40
180.0
100
AcDbArc
 50
174.622279
 51
225.033013
  0
ARC
  5
5E0
100
AcDbEntity
  8
HOOK
100
AcDbCircle
 10
11453.609963
 20
28956.96368
 30
0.0
 40
62.999444
100
AcDbArc
 50
167.203995
 51
247.014997
  0
ARC
  5
5E1
100
AcDbEntity
  8
HOOK
100
AcDbCircle
 10
11362.221074
 20
28741.547013
 30
0.0
 40
170.998611
100
AcDbArc
 50
0.03306
 51
67.097426
  0
ARC
  5
5E2
100
AcDbEntity
  8
HOOK
100
AcDbCircle
 10
11345.693296
 20
28746.033124
 30
0.0
 40
62.5
100
AcDbArc
 50
0.032945
 51
45.033623
  0
ARC
  5
5E3
100
AcDbEntity
  8
HOOK
100
AcDbCircle
 10
11043.193296
 20
28620.699791
 30
0.0
 40
265.0
100
AcDbArc
 50
22.500683
 51
45.033108
  0
LINE
  5
5E4
100
AcDbEntity
  8
HOOK
100
AcDbLine
 10
11219.998852
 20
28818.630346
 30
0.0
 11
11230.415519
 21
28808.185902
 31
0.0
  0
LINE
  5
5E5
100
AcDbEntity
  8
HOOK
100
AcDbLine
 10
11353.471074
 20
28826.699791
 30
0.0
 11
11389.859963
 21
28790.255346
 31
0.0
  0
LINE
  5
5E6
100
AcDbEntity
  8
HOOK
  6
CONTINUOUS
100
AcDbLine
 10
11505.695796
 20
28970.916828
 30
0.0
 11
11545.695796
 21
29020.916828
 31
0.0
  0
TEXT
  5
5E7
100
AcDbEntity
  8
HOOK
100
AcDbText
 10
11376.098548
 20
29005.680709
 30
0.0
 40
30.0
  1
12.5t
  7
EXTFONT
100
AcDbText
  0
LINE
  5
5E8
100
AcDbEntity
  8
HOOK
100
AcDbLine
 10
11345.693296
 20
29596.30206
 30
0.0
 11
11345.693296
 21
28918.446404
 31
0.0
  0
LINE
  5
5E9
100
AcDbEntity
  8
HOOK
  6
CONTINUOUS
100
AcDbLine
 10
11545.695796
 20
29672.598042
 30
0.0
 11
11545.695796
 21
29020.916828
 31
0.0
  0
LINE
  5
5EA
100
AcDbEntity
  8
HOOK
  6
CONTINUOUS
100
AcDbLine
 10
11145.690796
 20
29672.598548
 30
0.0
 11
11205.123825
 21
29773.911443
 31
0.0
  0
LINE
  5
5EB
100
AcDbEntity
  8
HOOK
  6
CONTINUOUS
100
AcDbLine
 10
11185.690796
 20
28970.916828
 30
0.0
 11
11145.690796
 21
29020.916828
 31
0.0
  0
LINE
  5
5EC
100
AcDbEntity
  8
HOOK
  6
CONTINUOUS
100
AcDbLine
 10
11145.690796
 20
29672.598548
 30
0.0
 11
11145.690796
 21
29020.916828
 31
0.0
  0
ARC
  5
5ED
100
AcDbEntity
  8
HOOK
100
AcDbCircle
 10
11202.359963
 20
28800.949791
 30
0.0
 40
25.0
100
AcDbArc
 50
37.05891
 51
208.190002
  0
ARC
  5
5EE
100
AcDbEntity
  8
HOOK
100
AcDbCircle
 10
10946.665519
 20
28663.949791
 30
0.0
 40
264.998611
100
AcDbArc
 50
8.363121
 51
28.190096
  0
LINE
  5
5EF
100
AcDbEntity
  8
HOOK
  6
CONTINUOUS
100
AcDbLine
 10
11145.690796
 20
29323.913124
 30
0.0
 11
11545.695796
 21
29323.913124
 31
0.0
  0
LINE
  5
5F0
100
AcDbEntity
  8
HOOK
  6
CONTINUOUS
100
AcDbLine
 10
11185.690796
 20
28970.916828
 30
0.0
 11
11505.695796
 21
28970.916828
 31
0.0
  0
LINE
  5
5F1
100
AcDbEntity
  8
HOOK
  6
CONTINUOUS
100
AcDbLine
 10
11205.124449
 20
29400.913124
 30
0.0
 11
11486.262144
 21
29400.913124
 31
0.0
  0
LINE
  5
5F2
100
AcDbEntity
  8
HOOK
  6
CONTINUOUS
100
AcDbLine
 10
11205.124449
 20
29773.913124
 30
0.0
 11
11486.262144
 21
29773.913124
 31
0.0
  0
LINE
  5
5F3
100
AcDbEntity
  8
0
100
AcDbLine
 10
11345.693296
 20
32586.122504
 30
0.0
 11
11345.693296
 21
29400.913124
 31
0.0
  0
TEXT
  5
6CB
100
AcDbEntity
  8
点
 62
     7
100
AcDbText
 10
11808.639242
 20
17946.360958
 30
0.0
 40
320.0
  1
ALL RIGHTS RESERVED,COPYRIGHT(C) TADANOSYSTEMS INC.
100
AcDbText
  0
LINE
  5
6CC
100
AcDbEntity
  8
0
  6
CONTINUOUS
 62
     7
100
AcDbLine
 10
11858.109646
 20
17436.672219
 30
0.0
 11
12950.109646
 21
17436.672219
 31
0.0
  0
LINE
  5
6CD
100
AcDbEntity
  8
0
  6
CONTINUOUS
 62
     7
100
AcDbLine
 10
11858.109646
 20
16596.672219
 30
0.0
 11
12950.109646
 21
17436.672219
 31
0.0
  0
LINE
  5
6CE
100
AcDbEntity
  8
0
  6
CONTINUOUS
 62
     7
100
AcDbLine
 10
11858.109646
 20
17436.672219
 30
0.0
 11
11858.109646
 21
16596.672219
 31
0.0
  0
LINE
  5
6CF
100
AcDbEntity
  8
0
  6
CONTINUOUS
 62
     7
100
AcDbLine
 10
12138.109646
 20
16316.672219
 30
0.0
 11
12978.109646
 21
17436.672219
 31
0.0
  0
LINE
  5
6D0
100
AcDbEntity
  8
0
  6
CONTINUOUS
 62
     7
100
AcDbLine
 10
13426.109646
 20
17436.672219
 30
0.0
 11
13426.109646
 21
16876.672219
 31
0.0
  0
LINE
  5
6D1
100
AcDbEntity
  8
0
  6
CONTINUOUS
 62
     7
100
AcDbLine
 10
12138.109646
 20
16316.672219
 30
0.0
 11
12978.109646
 21
16316.672219
 31
0.0
  0
LINE
  5
6D2
100
AcDbEntity
  8
0
  6
CONTINUOUS
 62
     7
100
AcDbLine
 10
12978.109646
 20
16876.672219
 30
0.0
 11
13426.109646
 21
16876.672219
 31
0.0
  0
LINE
  5
6D3
100
AcDbEntity
  8
0
  6
CONTINUOUS
 62
     7
100
AcDbLine
 10
12978.109646
 20
16876.672219
 30
0.0
 11
12978.109646
 21
16316.672219
 31
0.0
  0
LINE
  5
6D4
100
AcDbEntity
  8
0
  6
CONTINUOUS
 62
     7
100
AcDbLine
 10
12978.109646
 20
17436.672219
 30
0.0
 11
13426.109646
 21
17436.672219
 31
0.0
  0
LINE
  5
6D5
100
AcDbEntity
  8
0
  6
CONTINUOUS
 62
     7
100
AcDbLine
 10
15715.469646
 20
17436.672219
 30
0.0
 11
15906.749646
 21
17436.672219
 31
0.0
  0
LINE
  5
6D6
100
AcDbEntity
  8
0
  6
CONTINUOUS
 62
     7
100
AcDbLine
 10
15757.389646
 20
17076.432219
 30
0.0
 11
15864.909646
 21
17076.432219
 31
0.0
  0
LINE
  5
6D7
100
AcDbEntity
  8
0
  6
CONTINUOUS
 62
     7
100
AcDbLine
 10
15720.829646
 20
16958.272219
 30
0.0
 11
15901.389646
 21
16958.272219
 31
0.0
  0
LINE
  5
6D8
100
AcDbEntity
  8
0
  6
CONTINUOUS
 62
     7
100
AcDbLine
 10
15799.229646
 20
17212.192219
 30
0.0
 11
15757.389646
 21
17076.432219
 31
0.0
  0
LINE
  5
6D9
100
AcDbEntity
  8
0
  6
CONTINUOUS
 62
     7
100
AcDbLine
 10
15720.829646
 20
16958.272219
 30
0.0
 11
15695.789646
 21
16876.672219
 31
0.0
  0
ARC
  5
6DA
100
AcDbEntity
  8
0
  6
CONTINUOUS
 62
     7
100
AcDbCircle
 10
15292.349646
 20
17115.872219
 30
0.0
 40
239.212
100
AcDbArc
 50
270.0
 51
341.626
  0
LINE
  5
6DB
100
AcDbEntity
  8
0
  6
CONTINUOUS
 62
     7
100
AcDbLine
 10
14788.349646
 20
16958.272219
 30
0.0
 11
14813.389646
 21
16876.672219
 31
0.0
  0
LINE
  5
6DC
100
AcDbEntity
  8
0
  6
CONTINUOUS
 62
     7
100
AcDbLine
 10
14607.869646
 20
16958.272219
 30
0.0
 11
14582.669646
 21
16876.672219
 31
0.0
  0
LINE
  5
6DD
100
AcDbEntity
  8
0
  6
CONTINUOUS
 62
     7
100
AcDbLine
 10
15512.829646
 20
16876.672219
 30
0.0
 11
15715.469646
 21
17436.672219
 31
0.0
  0
LINE
  5
6DE
100
AcDbEntity
  8
0
  6
CONTINUOUS
 62
     7
100
AcDbLine
 10
14793.789646
 20
17436.672219
 30
0.0
 11
14996.429646
 21
16876.672219
 31
0.0
  0
LINE
  5
6DF
100
AcDbEntity
  8
0
  6
CONTINUOUS
 62
     7
100
AcDbLine
 10
15026.029646
 20
17436.672219
 30
0.0
 11
15026.029646
 21
16876.672219
 31
0.0
  0
LINE
  5
6E0
100
AcDbEntity
  8
0
  6
CONTINUOUS
 62
     7
100
AcDbLine
 10
14602.429646
 20
17436.672219
 30
0.0
 11
14399.789646
 21
16876.672219
 31
0.0
  0
LINE
  5
6E1
100
AcDbEntity
  8
0
  6
CONTINUOUS
 62
     7
100
AcDbLine
 10
14142.349646
 20
17284.672219
 30
0.0
 11
14142.349646
 21
16876.672219
 31
0.0
  0
LINE
  5
6E2
100
AcDbEntity
  8
0
  6
CONTINUOUS
 62
     7
100
AcDbLine
 10
14319.629646
 20
17284.672219
 30
0.0
 11
14319.629646
 21
16876.672219
 31
0.0
  0
LINE
  5
6E3
100
AcDbEntity
  8
0
  6
CONTINUOUS
 62
     7
100
AcDbLine
 10
14142.349646
 20
16876.672219
 30
0.0
 11
14319.629646
 21
16876.672219
 31
0.0
  0
LINE
  5
6E4
100
AcDbEntity
  8
0
  6
CONTINUOUS
 62
     7
100
AcDbLine
 10
14399.789646
 20
16876.672219
 30
0.0
 11
14582.669646
 21
16876.672219
 31
0.0
  0
LINE
  5
6E5
100
AcDbEntity
  8
0
  6
CONTINUOUS
 62
     7
100
AcDbLine
 10
15026.029646
 20
16876.672219
 30
0.0
 11
15292.349646
 21
16876.672219
 31
0.0
  0
LINE
  5
6E6
100
AcDbEntity
  8
0
  6
CONTINUOUS
 62
     7
100
AcDbLine
 10
14813.389646
 20
16876.672219
 30
0.0
 11
14996.429646
 21
16876.672219
 31
0.0
  0
LINE
  5
6E7
100
AcDbEntity
  8
0
  6
CONTINUOUS
 62
     7
100
AcDbLine
 10
15512.829646
 20
16876.672219
 30
0.0
 11
15695.789646
 21
16876.672219
 31
0.0
  0
LINE
  5
6E8
100
AcDbEntity
  8
0
  6
CONTINUOUS
 62
     7
100
AcDbLine
 10
13986.109646
 20
17436.672219
 30
0.0
 11
14475.709646
 21
17436.672219
 31
0.0
  0
LINE
  5
6E9
100
AcDbEntity
  8
0
  6
CONTINUOUS
 62
     7
100
AcDbLine
 10
13986.109646
 20
17436.672219
 30
0.0
 11
13986.109646
 21
17284.672219
 31
0.0
  0
LINE
  5
6EA
100
AcDbEntity
  8
0
  6
CONTINUOUS
 62
     7
100
AcDbLine
 10
13986.109646
 20
17284.672219
 30
0.0
 11
14142.349646
 21
17284.672219
 31
0.0
  0
ARC
  5
6EB
100
AcDbEntity
  8
0
  6
CONTINUOUS
 62
     7
100
AcDbCircle
 10
14990.749646
 20
17298.752219
 30
0.0
 40
293.7896
100
AcDbArc
 50
188.261
 51
197.133
  0
LINE
  5
6EC
100
AcDbEntity
  8
0
  6
CONTINUOUS
 62
     7
100
AcDbLine
 10
14475.709646
 20
17436.672219
 30
0.0
 11
14475.709646
 21
17284.672219
 31
0.0
  0
ARC
  5
6ED
100
AcDbEntity
  8
0
  6
CONTINUOUS
 62
     7
100
AcDbCircle
 10
14405.389646
 20
17298.752219
 30
0.0
 40
293.7904
100
AcDbArc
 50
342.867
 51
351.73902
  0
LINE
  5
6EE
100
AcDbEntity
  8
0
  6
CONTINUOUS
 62
     7
100
AcDbLine
 10
14319.629646
 20
17284.672219
 30
0.0
 11
14475.709646
 21
17284.672219
 31
0.0
  0
LINE
  5
6EF
100
AcDbEntity
  8
0
  6
CONTINUOUS
 62
     7
100
AcDbLine
 10
14696.189646
 20
17256.592219
 30
0.0
 11
14700.109646
 21
17256.592219
 31
0.0
  0
LINE
  5
6F0
100
AcDbEntity
  8
0
  6
CONTINUOUS
 62
     7
100
AcDbLine
 10
14602.429646
 20
17436.672219
 30
0.0
 11
14793.789646
 21
17436.672219
 31
0.0
  0
LINE
  5
6F1
100
AcDbEntity
  8
0
  6
CONTINUOUS
 62
     7
100
AcDbLine
 10
14607.869646
 20
16958.272219
 30
0.0
 11
14788.349646
 21
16958.272219
 31
0.0
  0
LINE
  5
6F2
100
AcDbEntity
  8
0
  6
CONTINUOUS
 62
     7
100
AcDbLine
 10
14644.269646
 20
17076.432219
 30
0.0
 11
14751.789646
 21
17076.432219
 31
0.0
  0
LINE
  5
6F3
100
AcDbEntity
  8
0
  6
CONTINUOUS
 62
     7
100
AcDbLine
 10
14710.029646
 20
17212.192219
 30
0.0
 11
14751.789646
 21
17076.432219
 31
0.0
  0
LINE
  5
6F4
100
AcDbEntity
  8
0
  6
CONTINUOUS
 62
     7
100
AcDbLine
 10
14686.189646
 20
17212.192219
 30
0.0
 11
14644.269646
 21
17076.432219
 31
0.0
  0
ARC
  5
6F5
100
AcDbEntity
  8
0
  6
CONTINUOUS
 62
     7
100
AcDbCircle
 10
15264.989646
 20
17200.192219
 30
0.0
 40
98.4984
100
AcDbArc
 50
22.2133
 51
90.0
  0
LINE
  5
6F6
100
AcDbEntity
  8
0
  6
CONTINUOUS
 62
     7
100
AcDbLine
 10
15026.029646
 20
17436.672219
 30
0.0
 11
15305.789646
 21
17436.672219
 31
0.0
  0
ARC
  5
6F7
100
AcDbEntity
  8
0
  6
CONTINUOUS
 62
     7
100
AcDbCircle
 10
15264.189646
 20
17118.672219
 30
0.0
 40
101.3144
100
AcDbArc
 50
270.0
 51
340.276
  0
LINE
  5
6F8
100
AcDbEntity
  8
0
  6
CONTINUOUS
 62
     7
100
AcDbLine
 10
15191.949646
 20
17298.752219
 30
0.0
 11
15264.989646
 21
17298.752219
 31
0.0
  0
LINE
  5
6F9
100
AcDbEntity
  8
0
  6
CONTINUOUS
 62
     7
100
AcDbLine
 10
15191.949646
 20
17017.312219
 30
0.0
 11
15264.189646
 21
17017.312219
 31
0.0
  0
LINE
  5
6FA
100
AcDbEntity
  8
0
  6
CONTINUOUS
 62
     7
100
AcDbLine
 10
15191.949646
 20
17298.752219
 30
0.0
 11
15191.949646
 21
17017.312219
 31
0.0
  0
ARC
  5
6FB
100
AcDbEntity
  8
0
  6
CONTINUOUS
 62
     7
100
AcDbCircle
 10
15305.789646
 20
17217.152219
 30
0.0
 40
219.5136
100
AcDbArc
 50
23.9328
 51
90.0
  0
ARC
  5
6FC
100
AcDbEntity
  8
0
  6
CONTINUOUS
 62
     7
100
AcDbCircle
 10
15169.469646
 20
17156.672219
 30
0.0
 40
368.668
100
AcDbArc
 50
341.626
 51
23.9327
  0
ARC
  5
6FD
100
AcDbEntity
  8
0
  6
CONTINUOUS
 62
     7
100
AcDbCircle
 10
15158.189646
 20
17156.672219
 30
0.0
 40
213.884
100
AcDbArc
 50
340.276
 51
22.213
  0
ARC
  5
6FE
100
AcDbEntity
  8
0
  6
CONTINUOUS
 62
     7
100
AcDbCircle
 10
16979.069646
 20
17115.632219
 30
0.0
 40
247.6544
100
AcDbArc
 50
206.967
 51
252.685
  0
ARC
  5
6FF
100
AcDbEntity
  8
0
  6
CONTINUOUS
 62
     7
100
AcDbCircle
 10
17032.509646
 20
17115.632219
 30
0.0
 40
247.6568
100
AcDbArc
 50
287.263
 51
332.938
  0
LINE
  5
700
100
AcDbEntity
  8
0
  6
CONTINUOUS
 62
     7
100
AcDbLine
 10
15901.389646
 20
16958.272219
 30
0.0
 11
15926.509646
 21
16876.672219
 31
0.0
  0
LINE
  5
701
100
AcDbEntity
  8
0
  6
CONTINUOUS
 62
     7
100
AcDbLine
 10
16654.029646
 20
17436.672219
 30
0.0
 11
16654.029646
 21
16876.672219
 31
0.0
  0
LINE
  5
702
100
AcDbEntity
  8
0
  6
CONTINUOUS
 62
     7
100
AcDbLine
 10
15906.749646
 20
17436.672219
 30
0.0
 11
16109.469646
 21
16876.672219
 31
0.0
  0
LINE
  5
703
100
AcDbEntity
  8
0
  6
CONTINUOUS
 62
     7
100
AcDbLine
 10
16138.909646
 20
17436.672219
 30
0.0
 11
16138.909646
 21
16876.672219
 31
0.0
  0
LINE
  5
704
100
AcDbEntity
  8
0
  6
CONTINUOUS
 62
     7
100
AcDbLine
 10
16322.989646
 20
17144.992219
 30
0.0
 11
16487.949646
 21
16876.672219
 31
0.0
  0
LINE
  5
705
100
AcDbEntity
  8
0
  6
CONTINUOUS
 62
     7
100
AcDbLine
 10
16299.469646
 20
17144.032219
 30
0.0
 11
16299.469646
 21
16876.672219
 31
0.0
  0
LINE
  5
706
100
AcDbEntity
  8
0
  6
CONTINUOUS
 62
     7
100
AcDbLine
 10
16138.909646
 20
16876.672219
 30
0.0
 11
16299.469646
 21
16876.672219
 31
0.0
  0
LINE
  5
707
100
AcDbEntity
  8
0
  6
CONTINUOUS
 62
     7
100
AcDbLine
 10
15926.509646
 20
16876.672219
 30
0.0
 11
16109.469646
 21
16876.672219
 31
0.0
  0
LINE
  5
708
100
AcDbEntity
  8
0
  6
CONTINUOUS
 62
     7
100
AcDbLine
 10
16487.949646
 20
16876.672219
 30
0.0
 11
16654.029646
 21
16876.672219
 31
0.0
  0
ARC
  5
709
100
AcDbEntity
  8
0
  6
CONTINUOUS
 62
     7
100
AcDbCircle
 10
17005.789646
 20
17201.632219
 30
0.0
 40
337.7128
100
AcDbArc
 50
252.699
 51
287.263
  0
ARC
  5
70A
100
AcDbEntity
  8
0
  6
CONTINUOUS
 62
     7
100
AcDbCircle
 10
16979.069646
 20
17197.632219
 30
0.0
 40
247.6568
100
AcDbArc
 50
107.346
 51
153.043
  0
ARC
  5
70B
100
AcDbEntity
  8
0
  6
CONTINUOUS
 62
     7
100
AcDbCircle
 10
17059.229646
 20
17156.672219
 30
0.0
 40
337.7128
100
AcDbArc
 50
152.861
 51
207.131
  0
LINE
  5
70C
100
AcDbEntity
  8
0
  6
CONTINUOUS
 62
     7
100
AcDbLine
 10
16138.909646
 20
17436.672219
 30
0.0
 11
16305.069646
 21
17436.672219
 31
0.0
  0
ARC
  5
70D
100
AcDbEntity
  8
0
  6
CONTINUOUS
 62
     7
100
AcDbCircle
 10
15518.429646
 20
17298.752219
 30
0.0
 40
293.7904
100
AcDbArc
 50
342.867
 51
351.73902
  0
ARC
  5
70E
100
AcDbEntity
  8
0
  6
CONTINUOUS
 62
     7
100
AcDbCircle
 10
16103.789646
 20
17298.752219
 30
0.0
 40
293.7896
100
AcDbArc
 50
188.261
 51
197.133
  0
LINE
  5
70F
100
AcDbEntity
  8
0
  6
CONTINUOUS
 62
     7
100
AcDbLine
 10
15809.229646
 20
17256.592219
 30
0.0
 11
15812.989646
 21
17256.592219
 31
0.0
  0
LINE
  5
710
100
AcDbEntity
  8
0
  6
CONTINUOUS
 62
     7
100
AcDbLine
 10
15823.069646
 20
17212.192219
 30
0.0
 11
15864.909646
 21
17076.432219
 31
0.0
  0
LINE
  5
711
100
AcDbEntity
  8
0
  6
CONTINUOUS
 62
     7
100
AcDbLine
 10
16305.069646
 20
17436.672219
 30
0.0
 11
16470.029646
 21
17168.272219
 31
0.0
  0
LINE
  5
712
100
AcDbEntity
  8
0
  6
CONTINUOUS
 62
     7
100
AcDbLine
 10
16493.549646
 20
17436.672219
 30
0.0
 11
16493.549646
 21
17169.312219
 31
0.0
  0
ARC
  5
713
100
AcDbEntity
  8
0
  6
CONTINUOUS
 62
     7
100
AcDbCircle
 10
15939.149646
 20
17144.032219
 30
0.0
 40
360.2264
100
AcDbArc
 50
0.0
 51
6.7299
  0
ARC
  5
714
100
AcDbEntity
  8
0
  6
CONTINUOUS
 62
     7
100
AcDbCircle
 10
16797.469646
 20
17436.672219
 30
0.0
 40
557.0016
100
AcDbArc
 50
206.723
 51
211.578
  0
LINE
  5
715
100
AcDbEntity
  8
0
  6
CONTINUOUS
 62
     7
100
AcDbLine
 10
16296.829646
 20
17186.192219
 30
0.0
 11
16300.029646
 21
17186.192219
 31
0.0
  0
ARC
  5
716
100
AcDbEntity
  8
0
  6
CONTINUOUS
 62
     7
100
AcDbCircle
 10
16853.869646
 20
17169.312219
 30
0.0
 40
360.2264
100
AcDbArc
 50
180.0
 51
186.73
  0
LINE
  5
717
100
AcDbEntity
  8
0
  6
CONTINUOUS
 62
     7
100
AcDbLine
 10
16492.989646
 20
17127.072219
 30
0.0
 11
16496.109646
 21
17127.072219
 31
0.0
  0
ARC
  5
718
100
AcDbEntity
  8
0
  6
CONTINUOUS
 62
     7
100
AcDbCircle
 10
15995.469646
 20
16876.672219
 30
0.0
 40
556.9992
100
AcDbArc
 50
26.7228
 51
31.5781
  0
LINE
  5
719
100
AcDbEntity
  8
0
  6
CONTINUOUS
 62
     7
100
AcDbLine
 10
16493.549646
 20
17436.672219
 30
0.0
 11
16654.029646
 21
17436.672219
 31
0.0
  0
ARC
  5
71A
100
AcDbEntity
  8
0
  6
CONTINUOUS
 62
     7
100
AcDbCircle
 10
17032.509646
 20
17197.632219
 30
0.0
 40
247.6552
100
AcDbArc
 50
27.0618
 51
72.7366
  0
ARC
  5
71B
100
AcDbEntity
  8
0
  6
CONTINUOUS
 62
     7
100
AcDbCircle
 10
17005.789646
 20
17203.472219
 30
0.0
 40
99.4976
100
AcDbArc
 50
14.6894
 51
164.799
  0
ARC
  5
71C
100
AcDbEntity
  8
0
  6
CONTINUOUS
 62
     7
100
AcDbCircle
 10
17005.789646
 20
17111.632219
 30
0.0
 40
337.7128
100
AcDbArc
 50
72.7367
 51
107.323
  0
ARC
  5
71D
100
AcDbEntity
  8
0
  6
CONTINUOUS
 62
     7
100
AcDbCircle
 10
17005.789646
 20
17109.872219
 30
0.0
 40
99.4984
100
AcDbArc
 50
195.203
 51
345.311
  0
ARC
  5
71E
100
AcDbEntity
  8
0
  6
CONTINUOUS
 62
     7
100
AcDbCircle
 10
16827.069646
 20
17156.672219
 30
0.0
 40
284.24
100
AcDbArc
 50
345.311
 51
14.6886
  0
ARC
  5
71F
100
AcDbEntity
  8
0
  6
CONTINUOUS
 62
     7
100
AcDbCircle
 10
17184.429646
 20
17156.672219
 30
0.0
 40
284.24
100
AcDbArc
 50
165.132
 51
194.869
  0
ARC
  5
720
100
AcDbEntity
  8
0
  6
CONTINUOUS
 62
     7
100
AcDbCircle
 10
16952.269646
 20
17156.672219
 30
0.0
 40
337.7128
100
AcDbArc
 50
332.938
 51
27.062
  0
LINE
  5
801
100
AcDbEntity
  8
0
  6
CONTINUOUS
 62
     7
100
AcDbLine
 10
34589.461676
 20
20399.258245
 30
0.0
 11
34981.662272
 21
20172.821125
 31
0.0
  0
LINE
  5
802
100
AcDbEntity
  8
0
  6
CONTINUOUS
 62
     7
100
AcDbLine
 10
34589.461676
 20
20399.258245
 30
0.0
 11
34415.279276
 21
20097.565478
 31
0.0
  0
LINE
  5
803
100
AcDbEntity
  8
0
  6
CONTINUOUS
 62
     7
100
AcDbLine
 10
35353.750018
 20
19957.996165
 30
0.0
 11
35529.593802
 21
19856.472709
 31
0.0
  0
LINE
  5
804
100
AcDbEntity
  8
0
  6
CONTINUOUS
 62
     7
100
AcDbLine
 10
35386.204922
 20
19671.086969
 30
0.0
 11
35451.887747
 21
19633.164972
 31
0.0
  0
LINE
  5
805
100
AcDbEntity
  8
0
  6
CONTINUOUS
 62
     7
100
AcDbLine
 10
35442.017693
 20
19834.245433
 30
0.0
 11
35357.414813
 21
19687.708947
 31
0.0
  0
LINE
  5
806
100
AcDbEntity
  8
0
  6
CONTINUOUS
 62
     7
100
AcDbLine
 10
35575.106311
 20
19830.19605
 30
0.0
 11
35386.204922
 21
19671.086969
 31
0.0
  0
LINE
  5
807
100
AcDbEntity
  8
0
  6
CONTINUOUS
 62
     7
100
AcDbLine
 10
34415.279276
 20
20097.565478
 30
0.0
 11
34981.662272
 21
20172.821125
 31
0.0
  0
LINE
  5
808
100
AcDbEntity
  8
0
  6
CONTINUOUS
 62
     7
100
AcDbLine
 10
35378.346152
 20
19871.006214
 30
0.0
 11
35293.743272
 21
19724.469727
 31
0.0
  0
LINE
  5
809
100
AcDbEntity
  8
0
  6
CONTINUOUS
 62
     7
100
AcDbLine
 10
35293.743272
 20
19724.469727
 30
0.0
 11
35357.414813
 21
19687.708947
 31
0.0
  0
LINE
  5
80A
100
AcDbEntity
  8
0
  6
CONTINUOUS
 62
     7
100
AcDbLine
 10
34875.597098
 20
19965.886534
 30
0.0
 11
35036.499907
 21
19872.989254
 31
0.0
  0
LINE
  5
80B
100
AcDbEntity
  8
0
  6
CONTINUOUS
 62
     7
100
AcDbLine
 10
34457.782731
 20
19938.940423
 30
0.0
 11
34991.718698
 21
20167.015045
 31
0.0
  0
LINE
  5
80C
100
AcDbEntity
  8
0
  6
CONTINUOUS
 62
     7
100
AcDbLine
 10
34457.782731
 20
19938.940423
 30
0.0
 11
34759.475498
 21
19764.758023
 31
0.0
  0
LINE
  5
80D
100
AcDbEntity
  8
0
  6
CONTINUOUS
 62
     7
100
AcDbLine
 10
34875.597098
 20
19965.886534
 30
0.0
 11
34759.475498
 21
19764.758023
 31
0.0
  0
LINE
  5
80E
100
AcDbEntity
  8
0
  6
CONTINUOUS
 62
     7
100
AcDbLine
 10
35322.231298
 20
19903.40414
 30
0.0
 11
35378.346152
 21
19871.006214
 31
0.0
  0
LINE
  5
80F
100
AcDbEntity
  8
0
  6
CONTINUOUS
 62
     7
100
AcDbLine
 10
35353.750018
 20
19957.996165
 30
0.0
 11
35322.231298
 21
19903.40414
 31
0.0
  0
LINE
  5
810
100
AcDbEntity
  8
0
  6
CONTINUOUS
 62
     7
100
AcDbLine
 10
34991.718698
 20
20167.015045
 30
0.0
 11
35152.621507
 21
20074.117765
 31
0.0
  0
LINE
  5
811
100
AcDbEntity
  8
0
  6
CONTINUOUS
 62
     7
100
AcDbLine
 10
35152.621507
 20
20074.117765
 30
0.0
 11
35036.499907
 21
19872.989254
 31
0.0
  0
ARC
  5
812
100
AcDbEntity
  8
0
  6
CONTINUOUS
 62
     7
100
AcDbCircle
 10
36389.936063
 20
19248.079661
 30
0.0
 40
41.263645
100
AcDbArc
 50
344.6894
 51
134.799
  0
ARC
  5
813
100
AcDbEntity
  8
0
  6
CONTINUOUS
 62
     7
100
AcDbCircle
 10
36381.318264
 20
19210.990559
 30
0.0
 40
102.708228
100
AcDbArc
 50
257.263
 51
302.938
  0
ARC
  5
814
100
AcDbEntity
  8
0
  6
CONTINUOUS
 62
     7
100
AcDbCircle
 10
36370.527167
 20
19214.462467
 30
0.0
 40
41.263976
100
AcDbArc
 50
165.203
 51
315.311
  0
ARC
  5
815
100
AcDbEntity
  8
0
  6
CONTINUOUS
 62
     7
100
AcDbCircle
 10
36379.128377
 20
19251.522838
 30
0.0
 40
102.708228
100
AcDbArc
 50
77.346
 51
123.043
  0
LINE
  5
816
100
AcDbEntity
  8
0
  6
CONTINUOUS
 62
     7
100
AcDbLine
 10
35567.203545
 20
19727.260313
 30
0.0
 11
35554.050791
 21
19669.841662
 31
0.0
  0
LINE
  5
817
100
AcDbEntity
  8
0
  6
CONTINUOUS
 62
     7
100
AcDbLine
 10
35558.641217
 20
19732.203776
 30
0.0
 11
35515.434117
 21
19692.137009
 31
0.0
  0
LINE
  5
818
100
AcDbEntity
  8
0
  6
CONTINUOUS
 62
     7
100
AcDbLine
 10
35643.834796
 20
19790.51564
 30
0.0
 11
35600.492984
 21
19547.367699
 31
0.0
  0
LINE
  5
819
100
AcDbEntity
  8
0
  6
CONTINUOUS
 62
     7
100
AcDbLine
 10
35727.245663
 20
19742.358354
 30
0.0
 11
35611.124063
 21
19541.229843
 31
0.0
  0
LINE
  5
81A
100
AcDbEntity
  8
0
  6
CONTINUOUS
 62
     7
100
AcDbLine
 10
35727.245663
 20
19742.358354
 30
0.0
 11
35827.72372
 21
19684.34732
 31
0.0
  0
LINE
  5
81B
100
AcDbEntity
  8
0
  6
CONTINUOUS
 62
     7
100
AcDbLine
 10
35877.587656
 20
19426.463412
 30
0.0
 11
35942.437234
 21
19389.02249
 31
0.0
  0
LINE
  5
81C
100
AcDbEntity
  8
0
  6
CONTINUOUS
 62
     7
100
AcDbLine
 10
35785.962204
 20
19440.286995
 30
0.0
 11
35974.863593
 21
19599.396075
 31
0.0
  0
LINE
  5
81D
100
AcDbEntity
  8
0
  6
CONTINUOUS
 62
     7
100
AcDbLine
 10
35699.878678
 20
19557.33666
 30
0.0
 11
35725.824256
 21
19542.356974
 31
0.0
  0
LINE
  5
81E
100
AcDbEntity
  8
0
  6
CONTINUOUS
 62
     7
100
AcDbLine
 10
35758.238076
 20
19658.418103
 30
0.0
 11
35784.470981
 21
19643.272529
 31
0.0
  0
LINE
  5
81F
100
AcDbEntity
  8
0
  6
CONTINUOUS
 62
     7
100
AcDbLine
 10
35758.238076
 20
19658.418103
 30
0.0
 11
35699.878678
 21
19557.33666
 31
0.0
  0
ARC
  5
820
100
AcDbEntity
  8
0
  6
CONTINUOUS
 62
     7
100
AcDbCircle
 10
35720.702494
 20
19612.05038
 30
0.0
 40
152.893993
100
AcDbArc
 50
311.626
 51
353.9327
  0
LINE
  5
821
100
AcDbEntity
  8
0
  6
CONTINUOUS
 62
     7
100
AcDbLine
 10
35877.587656
 20
19426.463412
 30
0.0
 11
35851.673762
 21
19402.348409
 31
0.0
  0
LINE
  5
822
100
AcDbEntity
  8
0
  6
CONTINUOUS
 62
     7
100
AcDbLine
 10
35785.962204
 20
19440.286995
 30
0.0
 11
35851.673762
 21
19402.348409
 31
0.0
  0
ARC
  5
823
100
AcDbEntity
  8
0
  6
CONTINUOUS
 62
     7
100
AcDbCircle
 10
35764.033579
 20
19607.873911
 30
0.0
 40
40.849256
100
AcDbArc
 50
352.2133
 51
60.0
  0
ARC
  5
824
100
AcDbEntity
  8
0
  6
CONTINUOUS
 62
     7
100
AcDbCircle
 10
35716.651191
 20
19614.3894
 30
0.0
 40
88.701972
100
AcDbArc
 50
310.276
 51
352.213
  0
ARC
  5
825
100
AcDbEntity
  8
0
  6
CONTINUOUS
 62
     7
100
AcDbCircle
 10
35746.842265
 20
19578.761234
 30
0.0
 40
42.017108
100
AcDbArc
 50
240.0
 51
310.276
  0
ARC
  5
826
100
AcDbEntity
  8
0
  6
CONTINUOUS
 62
     7
100
AcDbCircle
 10
35756.375548
 20
19571.916334
 30
0.0
 40
99.206001
100
AcDbArc
 50
240.0
 51
311.626
  0
ARC
  5
827
100
AcDbEntity
  8
0
  6
CONTINUOUS
 62
     7
100
AcDbCircle
 10
35782.204053
 20
19605.504944
 30
0.0
 40
91.03668
100
AcDbArc
 50
353.9328
 51
60.0
  0
LINE
  5
828
100
AcDbEntity
  8
0
  6
CONTINUOUS
 62
     7
100
AcDbLine
 10
35534.752694
 20
19585.322873
 30
0.0
 11
35600.492984
 21
19547.367699
 31
0.0
  0
LINE
  5
829
100
AcDbEntity
  8
0
  6
CONTINUOUS
 62
     7
100
AcDbLine
 10
35515.434117
 20
19692.137009
 30
0.0
 11
35554.050791
 21
19669.841662
 31
0.0
  0
LINE
  5
82A
100
AcDbEntity
  8
0
  6
CONTINUOUS
 62
     7
100
AcDbLine
 10
35542.679952
 20
19619.822465
 30
0.0
 11
35534.752694
 21
19585.322873
 31
0.0
  0
LINE
  5
82B
100
AcDbEntity
  8
0
  6
CONTINUOUS
 62
     7
100
AcDbLine
 10
35477.859106
 20
19657.246797
 30
0.0
 11
35451.887747
 21
19633.164972
 31
0.0
  0
LINE
  5
82C
100
AcDbEntity
  8
0
  6
CONTINUOUS
 62
     7
100
AcDbLine
 10
35477.859106
 20
19657.246797
 30
0.0
 11
35542.679952
 21
19619.822465
 31
0.0
  0
LINE
  5
82D
100
AcDbEntity
  8
0
  6
CONTINUOUS
 62
     7
100
AcDbLine
 10
35611.124063
 20
19541.229843
 30
0.0
 11
35706.775036
 21
19486.005727
 31
0.0
  0
LINE
  5
82E
100
AcDbEntity
  8
0
  6
CONTINUOUS
 62
     7
100
AcDbLine
 10
36132.57653
 20
19368.661506
 30
0.0
 11
36136.184407
 21
19238.086111
 31
0.0
  0
LINE
  5
82F
100
AcDbEntity
  8
0
  6
CONTINUOUS
 62
     7
100
AcDbLine
 10
36186.623182
 20
19477.136619
 30
0.0
 11
36190.214471
 21
19346.532491
 31
0.0
  0
ARC
  5
830
100
AcDbEntity
  8
0
  6
CONTINUOUS
 62
     7
100
AcDbCircle
 10
35994.518236
 20
19447.909777
 30
0.0
 40
149.393093
100
AcDbArc
 50
330.0
 51
336.7299
  0
ARC
  5
831
100
AcDbEntity
  8
0
  6
CONTINUOUS
 62
     7
100
AcDbCircle
 10
36363.472609
 20
19375.032555
 30
0.0
 40
230.999704
100
AcDbArc
 50
176.723
 51
181.578
  0
LINE
  5
832
100
AcDbEntity
  8
0
  6
CONTINUOUS
 62
     7
100
AcDbLine
 10
36131.724187
 20
19388.883356
 30
0.0
 11
36132.873493
 21
19388.219804
 31
0.0
  0
LINE
  5
833
100
AcDbEntity
  8
0
  6
CONTINUOUS
 62
     7
100
AcDbLine
 10
36123.930067
 20
19373.193822
 30
0.0
 11
36068.490297
 21
19277.169324
 31
0.0
  0
LINE
  5
834
100
AcDbEntity
  8
0
  6
CONTINUOUS
 62
     7
100
AcDbLine
 10
36254.317292
 20
19438.053406
 30
0.0
 11
36311.954977
 21
19404.776274
 31
0.0
  0
ARC
  5
835
100
AcDbEntity
  8
0
  6
CONTINUOUS
 62
     7
100
AcDbCircle
 10
36399.425021
 20
19220.189746
 30
0.0
 40
140.056252
100
AcDbArc
 50
122.861
 51
177.131
  0
ARC
  5
836
100
AcDbEntity
  8
0
  6
CONTINUOUS
 62
     7
100
AcDbCircle
 10
36362.124857
 20
19222.071877
 30
0.0
 40
102.707233
100
AcDbArc
 50
176.967
 51
222.685
  0
ARC
  5
837
100
AcDbEntity
  8
0
  6
CONTINUOUS
 62
     7
100
AcDbCircle
 10
36444.39161
 20
19194.228274
 30
0.0
 40
117.880013
100
AcDbArc
 50
135.132
 51
164.869
  0
ARC
  5
838
100
AcDbEntity
  8
0
  6
CONTINUOUS
 62
     7
100
AcDbCircle
 10
36389.55452
 20
19247.418811
 30
0.0
 40
140.056252
100
AcDbArc
 50
222.699
 51
257.263
  0
ARC
  5
839
100
AcDbEntity
  8
0
  6
CONTINUOUS
 62
     7
100
AcDbCircle
 10
36328.289353
 20
19267.312953
 30
0.0
 40
149.393093
100
AcDbArc
 50
150.0
 51
156.73
  0
LINE
  5
83A
100
AcDbEntity
  8
0
  6
CONTINUOUS
 62
     7
100
AcDbLine
 10
36189.917508
 20
19326.974194
 30
0.0
 11
36191.038081
 21
19326.327231
 31
0.0
  0
ARC
  5
83B
100
AcDbEntity
  8
0
  6
CONTINUOUS
 62
     7
100
AcDbCircle
 10
35959.306248
 20
19340.206764
 30
0.0
 40
230.998708
100
AcDbArc
 50
356.7228
 51
1.5781
  0
LINE
  5
83C
100
AcDbEntity
  8
0
  6
CONTINUOUS
 62
     7
100
AcDbLine
 10
36136.184407
 20
19238.086111
 30
0.0
 11
36195.833377
 21
19203.647763
 31
0.0
  0
LINE
  5
83D
100
AcDbEntity
  8
0
  6
CONTINUOUS
 62
     7
100
AcDbLine
 10
36254.317292
 20
19438.053406
 30
0.0
 11
36198.877523
 21
19342.028909
 31
0.0
  0
LINE
  5
83E
100
AcDbEntity
  8
0
  6
CONTINUOUS
 62
     7
100
AcDbLine
 10
36311.954977
 20
19404.776274
 30
0.0
 11
36195.833377
 21
19203.647763
 31
0.0
  0
LINE
  5
83F
100
AcDbEntity
  8
0
  6
CONTINUOUS
 62
     7
100
AcDbLine
 10
35974.863593
 20
19599.396075
 30
0.0
 11
36043.563345
 21
19559.732254
 31
0.0
  0
LINE
  5
840
100
AcDbEntity
  8
0
  6
CONTINUOUS
 62
     7
100
AcDbLine
 10
35958.398499
 20
19501.403801
 30
0.0
 11
35915.220132
 21
19461.320446
 31
0.0
  0
LINE
  5
841
100
AcDbEntity
  8
0
  6
CONTINUOUS
 62
     7
100
AcDbLine
 10
35966.960827
 20
19496.460339
 30
0.0
 11
35953.836806
 21
19439.025099
 31
0.0
  0
LINE
  5
842
100
AcDbEntity
  8
0
  6
CONTINUOUS
 62
     7
100
AcDbLine
 10
35915.220132
 20
19461.320446
 30
0.0
 11
35953.836806
 21
19439.025099
 31
0.0
  0
ARC
  5
843
100
AcDbEntity
  8
0
  6
CONTINUOUS
 62
     7
100
AcDbCircle
 10
35875.495998
 20
19590.719211
 30
0.0
 40
121.840755
100
AcDbArc
 50
312.867
 51
321.73902
  0
ARC
  5
844
100
AcDbEntity
  8
0
  6
CONTINUOUS
 62
     7
100
AcDbCircle
 10
36085.732758
 20
19469.338961
 30
0.0
 40
121.840423
100
AcDbArc
 50
158.261
 51
167.133
  0
LINE
  5
845
100
AcDbEntity
  8
0
  6
CONTINUOUS
 62
     7
100
AcDbLine
 10
35971.196863
 20
19515.276819
 30
0.0
 11
35972.547297
 21
19514.497145
 31
0.0
  0
LINE
  5
846
100
AcDbEntity
  8
0
  6
CONTINUOUS
 62
     7
100
AcDbLine
 10
35942.437234
 20
19389.02249
 30
0.0
 11
35934.538709
 21
19354.50631
 31
0.0
  0
LINE
  5
847
100
AcDbEntity
  8
0
  6
CONTINUOUS
 62
     7
100
AcDbLine
 10
35934.538709
 20
19354.50631
 30
0.0
 11
36000.250266
 21
19316.567724
 31
0.0
  0
LINE
  5
848
100
AcDbEntity
  8
0
  6
CONTINUOUS
 62
     7
100
AcDbLine
 10
36043.563345
 20
19559.732254
 30
0.0
 11
36000.250266
 21
19316.567724
 31
0.0
  0
LINE
  5
849
100
AcDbEntity
  8
0
  6
CONTINUOUS
 62
     7
100
AcDbLine
 10
36126.94548
 20
19511.591557
 30
0.0
 11
36010.82388
 21
19310.463046
 31
0.0
  0
LINE
  5
84A
100
AcDbEntity
  8
0
  6
CONTINUOUS
 62
     7
100
AcDbLine
 10
36126.94548
 20
19511.591557
 30
0.0
 11
36186.623182
 21
19477.136619
 31
0.0
  0
LINE
  5
84B
100
AcDbEntity
  8
0
  6
CONTINUOUS
 62
     7
100
AcDbLine
 10
36010.82388
 20
19310.463046
 30
0.0
 11
36068.490297
 21
19277.169324
 31
0.0
  0
LINE
  5
84C
100
AcDbEntity
  8
0
  6
CONTINUOUS
 62
     7
100
AcDbLine
 10
35575.106311
 20
19830.19605
 30
0.0
 11
35643.834796
 21
19790.51564
 31
0.0
  0
LINE
  5
84D
100
AcDbEntity
  8
0
  6
CONTINUOUS
 62
     7
100
AcDbLine
 10
35442.017693
 20
19834.245433
 30
0.0
 11
35498.075082
 21
19801.880684
 31
0.0
  0
ARC
  5
84E
100
AcDbEntity
  8
0
  6
CONTINUOUS
 62
     7
100
AcDbCircle
 10
35685.975475
 20
19700.138935
 30
0.0
 40
121.840423
100
AcDbArc
 50
158.261
 51
167.133
  0
ARC
  5
84F
100
AcDbEntity
  8
0
  6
CONTINUOUS
 62
     7
100
AcDbCircle
 10
35475.738716
 20
19821.519185
 30
0.0
 40
121.840755
100
AcDbArc
 50
312.867
 51
321.73902
  0
LINE
  5
850
100
AcDbEntity
  8
0
  6
CONTINUOUS
 62
     7
100
AcDbLine
 10
35571.439581
 20
19746.076793
 30
0.0
 11
35572.847481
 21
19745.263942
 31
0.0
  0
LINE
  5
851
100
AcDbEntity
  8
0
  6
CONTINUOUS
 62
     7
100
AcDbLine
 10
35529.593802
 20
19856.472709
 30
0.0
 11
35498.075082
 21
19801.880684
 31
0.0
  0
ARC
  5
852
100
AcDbEntity
  8
0
  6
CONTINUOUS
 62
     7
100
AcDbCircle
 10
36370.89212
 20
19215.094586
 30
0.0
 40
140.056252
100
AcDbArc
 50
42.7367
 51
77.323
  0
ARC
  5
853
100
AcDbEntity
  8
0
  6
CONTINUOUS
 62
     7
100
AcDbCircle
 10
36361.009476
 20
19242.368972
 30
0.0
 40
140.056252
100
AcDbArc
 50
302.938
 51
357.062
  0
ARC
  5
854
100
AcDbEntity
  8
0
  6
CONTINUOUS
 62
     7
100
AcDbCircle
 10
36316.042887
 20
19268.330444
 30
0.0
 40
117.880013
100
AcDbArc
 50
315.311
 51
344.6886
  0
ARC
  5
855
100
AcDbEntity
  8
0
  6
CONTINUOUS
 62
     7
100
AcDbCircle
 10
36398.321784
 20
19240.441519
 30
0.0
 40
102.707565
100
AcDbArc
 50
357.0618
 51
42.7366
  0
ENDSEC
  0
SECTION
  2
OBJECTS
  0
DICTIONARY
  5
867
100
AcDbDictionary
  3
ACAD_GROUP
350
868
  3
ACAD_MLINESTYLE
350
875
  3
ACDBVARIABLEDICTIONARY
350
88B
  0
DICTIONARY
  5
868
102
{ACAD_REACTORS
330
867
102
}
100
AcDbDictionary
  0
DICTIONARY
  5
875
102
{ACAD_REACTORS
330
867
102
}
100
AcDbDictionary
  3
STANDARD
350
876
  0
DICTIONARY
  5
88B
102
{ACAD_REACTORS
330
867
102
}
100
AcDbDictionary
  3
DIMADEC
350
88C
  0
MLINESTYLE
  5
876
102
{ACAD_REACTORS
330
875
102
}
100
AcDbMlineStyle
  2
STANDARD
 70
     0
  3

 62
   256
 51
90.0
 52
90.0
 71
     2
 49
0.5
 62
   256
  6
BYLAYER
 49
-0.5
 62
   256
  6
BYLAYER
  0
DICTIONARYVAR
  5
88C
102
{ACAD_REACTORS
330
88B
102
}
100
DictionaryVariables
280
     0
  1
1
  0
ENDSEC
  0
EOF
